Good Charlotte - Hold On Chords & Tabs

 

Hold On Chords & Tabs

Good Charlotte Chords & Tabs

Version: 2 Type: Tab 0 ratings
1 star 2 stars 3 stars 4 stars 5 stars
comments

Hold On Tab

Make sure you guitar is exactly in tune if you are playing with the CD.
Joel (My first tab, 'coz i'm only 16, i think it's right though)

Intro/Verse

Gtr 1
E------------------------------------------
B--------3-----------------3---------------
G----5-----5---5-------5-----5-----5-------
D------5-----5-----------5------5----------
A--3-----------------3---------------------
E------------------------------------------

E------------------------------------------
B--------3---6-5-3-------------------------
G----5-----5-------5---5-------------------
D------5-------------5---------------------
A--3---------------------------------------
E------------------------------------------

Gtr 2
E------------------------------------------
B---4/5-6--6/8-6--4/5-6--8/10/8-------------
G------------------------------------------
D------------------------------------------
A------------------------------------------
E------------------------------------------

Pre-chorus

Gtr 1
E------------------------------------------
B------------------------------------------
G----------------6~------------------------
D----6~----4~----6~-----6~----4~-----------
A----6~----4~----4~-----6~----4~-----------
E----4~----2~-----------4~----2~-----------

E------------------------------------------
B------------------------------------------
G------------------------------------------
D----4-4-4-4-4-4-4-4-4-4-4-4-4-4-4-4-------
A----4-4-4-4-4-4-4-4-4-4-4-4-4-4-4-4-------
E----2-2-2-2-2-2-2-2-2-2-2-2-2-2-2-2-------
  PM * * * * * * * * * * * *

Gtr 2
E------------------------------------------
B--5--3--5-6-5-3---------------------------
G----------------5-------------------------
D------------------------------------------
A------------------------------------------
E------------------------------------------


Chorus

Both Guitars

E-------------------------------------------------------------------
B-------------------------------------------------------------------
G-6-6-6-6-6-6-6-6---------------------------------------------------
D-6-6-6-6-6-6-6-6-6-6-6-6-6-6-6-6--8-8-8-8-8-8-8-8--4-4-4-4-4-4-4-4-
A-4-4-4-4-4-4-4-4-6-6-6-6-6-6-6-6--8-8-8-8-8-8-8-8--4-4-4-4-4-4-4-4-
E-----------------4-4-4-4-4-4-4-4--6-6-6-6-6-6-6-6--2-2-2-2-2-2-2-2-

E------------------------------------------------------------------
B------------------------------------------------------------------
G-6-6-6-6-6-6-6-6--------------------------------------------------
D-6-6-6-6-6-6-6-6-6-6-6-6-6-6-6-6--8-8-8-8--3-4--------------------
A-4-4-4-4-4-4-4-4-6-6-6-6-6-6-6-6--8-8-8-8--3-4--------------------
E-----------------4-4-4-4-4-4-4-4--6-6-6-6--1-2--------------------


***Verse***


***Pre-Chorus***


*Chorus 2*
(Both Guitars)

E-------------------------------------------------------------------
B-------------------------------------------------------------------
G-6-6-6-6-6-6-6-6---------------------------------------------------
D-6-6-6-6-6-6-6-6-6-6-6-6-6-6-6-6--8-8-8-8-8-8-8-8--4-4-4-4-4-4-4-4-
A-4-4-4-4-4-4-4-4-6-6-6-6-6-6-6-6--8-8-8-8-8-8-8-8--4-4-4-4-4-4-4-4-
E-----------------4-4-4-4-4-4-4-4--6-6-6-6-6-6-6-6--2-2-2-2-2-2-2-2-

E-------------------------------------------------------------------
B-------------------------------------------------------------------
G-6-6-6-6-6-6-6-6---------------------------------------------------
D-6-6-6-6-6-6-6-6-6-6-6-6-6-6-6-6--8-8-8-8-8-8-8-8--4-4-4-4-4-4-4-4-
A-4-4-4-4-4-4-4-4-6-6-6-6-6-6-6-6--8-8-8-8-8-8-8-8--4-4-4-4-4-4-4-4-
E-----------------4-4-4-4-4-4-4-4--6-6-6-6-6-6-6-6--2-2-2-2-2-2-2-2-

E-------------------------------------------------------------------
B-------------------------------------------------------------------
G-6-6-6-6-6-6-6-6---------------------------------------------------
D-6-6-6-6-6-6-6-6-6-6-6-6-6-6-6-6--8-8-8-8-8-8-8-8--4-4-4-4-4-4-4-4-
A-4-4-4-4-4-4-4-4-6-6-6-6-6-6-6-6--8-8-8-8-8-8-8-8--4-4-4-4-4-4-4-4-
E-----------------4-4-4-4-4-4-4-4--6-6-6-6-6-6-6-6--2-2-2-2-2-2-2-2-
[ Tab from: http://www.guitartabs.cc/tabs/g/good_charlotte/hold_on_tab_ver_2.html ]
E------------------------------------------------------------------
B------------------------------------------------------------------
G------------------------------------------------------------------
D-8-8-8-8--3-4-4-4-4-4-4-4-4------8-8-8-8--3-4-4-4-4-4-4-4-4-------
A-8-8-8-8--3-4-4-4-4-4-4-4-4------8-8-8-8--3-4-4-4-4-4-4-4-4-------
E-6-6-6-6--1-2-2-2-2-2-2-2-2------6-6-6-6--1-2-2-2-2-2-2-2-2-------

Bridge Part 1

Gtr 1
E------------------------------------------------
B------------------------------------------------
G--5-5v-5v-5v-5v-5v-5v-5v-6v-6v-6v-6v-6v-6v-6v-6v
D--x-x--x--x--x--x--x--x--x--x--x--x--x--x--x--x-
A--4-4--4--4--4--4--4--4--4--4--4--4--4--4--4--4-
E------------------------------------------------

E------------------------------------
B------------------------------------
G------------------------------------
D--3-3-3-3-3-3-3-3-3-3-3-3-3-3-3-3-3-
A--3-3-3-3-3-3-3-3-3-3-3-3-3-3-3-3-3-
E--1-1-1-1-1-1-1-1-1-1-1-1-1-1-1-1-1-

E------------------------------------------------
B------------------------------------------------
G--5-5v-5v-5v-5v-5v-5v-5v-6v-6v-6v-6v-6v-6v-6v-6v
D--x-x--x--x--x--x--x--x--x--x--x--x--x--x--x--x-
A--4-4--4--4--4--4--4--4--4--4--4--4--4--4--4--4-
E------------------------------------------------

E------------------------------------
B------------------------------------
G------------------------------------
D--3-3-3-3-3-3-3-3-3-3-3-3-3-3-3-3-3-
A--3-3-3-3-3-3-3-3-3-3-3-3-3-3-3-3-3-
E--1-1-1-1-1-1-1-1-1-1-1-1-1-1-1-1-1-

Bridge Part 2

Gtr 2 (x4)
E------8------8------8------8--------------
B----9------9------9------9----------------
G--6------6------6------6------------------
D------------------------------------------
A------------------------------------------
E------------------------------------------

Gtr 1 (x2)
E--------------------------------------
B--------------------------------------
G--------------------------------------
D------------------------------3-------
A------------------------------3-(x16)-
E------------------------------1-------
Then...
E--------------------------------------------------
B--------------------------------------------------
G--5-5v-5v-5v-5v-5v-5v-5v-6v-6v-6v-6v-6v-6v-6v-6v--
D--x-x--x--x--x--x--x--x--x--x--x--x--x--x--x--x--3
A--4-4--4--4--4--4--4--4--4--4--4--4--4--4--4--4--3(x16)(very fast)
E-------------------------------------------------1

E------------------------------------------------
B------------------------------------------------
G--5-5v-5v-5v-5v-5v-5v-5v-6v-6v-6v-6v-6v-6v-6v-6v
D--x-x--x--x--x--x--x--x--x--x--x--x--x--x--x--x-
A--4-4--4--4--4--4--4--4--4--4--4--4--4--4--4--4-
E------------------------------------------------

E--------------------------------------------------
B--------------------------------------------------
G--------------------------------------------------
D--3-3-3-3-3-3-3-3-4-4-4-4-4-4-4-4-4-4-4-4-4-4-4-4-
A--3-3-3-3-3-3-3-3-4-4-4-4-4-4-4-4-4-4-4-4-4-4-4-4-
E--1-1-1-1-1-1-1-1-2-2-2-2-2-2-2-2-2-2-2-2-2-2-2-2-


Chorus
(Both Guitars)

E-------------------------------------------------------------------
B-------------------------------------------------------------------
G-6-6-6-6-6-6-6-6---------------------------------------------------
D-6-6-6-6-6-6-6-6-6-6-6-6-6-6-6-6--8-8-8-8-8-8-8-8--4-4-4-4-4-4-4-4-
A-4-4-4-4-4-4-4-4-6-6-6-6-6-6-6-6--8-8-8-8-8-8-8-8--4-4-4-4-4-4-4-4-
E-----------------4-4-4-4-4-4-4-4--6-6-6-6-6-6-6-6--2-2-2-2-2-2-2-2-

E-------------------------------------------------------------------
B-------------------------------------------------------------------
G-6-6-6-6-6-6-6-6---------------------------------------------------
D-6-6-6-6-6-6-6-6-6-6-6-6-6-6-6-6--8-8-8-8-8-8-8-8--4-4-4-4-4-4-4-4-
A-4-4-4-4-4-4-4-4-6-6-6-6-6-6-6-6--8-8-8-8-8-8-8-8--4-4-4-4-4-4-4-4-
E-----------------4-4-4-4-4-4-4-4--6-6-6-6-6-6-6-6--2-2-2-2-2-2-2-2-

E---------------------------------------------------
B---------------------------------------------------
G-6-6-6-6-6-6-6-6-----------------------------------
D-6-6-6-6-6-6-6-6-6-6-6-6-6-6-6-6--8-8-8-8-8-8-8-8-4
A-4-4-4-4-4-4-4-4-6-6-6-6-6-6-6-6--8-8-8-8-8-8-8-8-4
E-----------------4-4-4-4-4-4-4-4--6-6-6-6-6-6-6-6-2


Then play Chorus 2


Ending 
E------8------8------8------8--------------
B----9------9------9------9-9--------------
G--6------6------6------6---6--------------
D------------------------------------------
A------------------------------------------
E------------------------------------------

Have fun!
Comments