Good Charlotte - Girls And Boys Chords & Tabs

 

Girls And Boys Chords & Tabs

Good Charlotte Chords & Tabs

Version: 4 Type: Tab 0 ratings
1 star 2 stars 3 stars 4 stars 5 stars
comments

Girls And Boys Tab

   
---------------------------------------------------------------------
                 "Boys and Girls" by Good Charlotte
---------------------------------------------------------------------
Tabbed by: SPIDERMAYN13 (Kevin A.)
Email: Kerriuga13@hotmail.com

Tuning: half-step down  
Eb Ab Db Gb Bb Eb (low to high)

I'm tired of seeing all the incorrect tabs for this...
heres the rite way to do it, maybe not 100%, but better 
than the others. no offense guys. email me with any questions
or comments or uh... complaints.

| /  slide up
| \  slide down
| x  mute note
| .  palm mute

Guitar 1: Intro/Verse
eb|-------0----------------0-----|
Bb|-------0----------------0-----|
Gb|-------6--------------8-------|
Db|----7---------------9---------|
Ab|------------------------------|
Eb|--5-------7-------------------|

Guitar 2 comes in during verse:
eb|------------------------------------------------|
Bb|------------------------------------------------|
Gb|------------------------------------------------|
Db|--7-7-7-7--9-9-9-9--7-7-7-7--9-9-9-9------------| x2
Ab|--7-7-7-7--9-9-9-9--7-7-7-7--9-9-9-9------------|
Eb|--5-5-5-5--7-7-7-7--5-5-5-5--7-7-7-7------------|
     . . . .  . . . .  . . . .  . . . .
[ Tab from: http://www.guitartabs.cc/tabs/g/good_charlotte/girls_and_boys_tab_ver_4.html ]
eb|---------------------|
Bb|---------------------|
Gb|---------------------|
Db|--7-7-7-7-7-7-7-7----|   
Ab|--7-7-7-7-7-7-7-7----|
Eb|--5-5-5-5-5-5-5-5----|
     . . . . . . . .

Chorus
eb|------------------------------------------|
Bb|------------------------------------------|
Gb|--99999999-99999999-----------------------|
Db|--99999999-99999999-7777777777777777------| x2   
Ab|--77777777-66666666-7777777777777777------|
Eb|--------------------5555555555555555------|
    "Girls dont like boys...."

Repeat Verse

Repeat Chorus

Bridge (same as chorus)
eb|------------------------------------------|
Bb|------------------------------------------|
Gb|--99999999-99999999-----------------------|
Db|--99999999-99999999-7777777777777777------| x2   
Ab|--77777777-66666666-7777777777777777------|
Eb|--------------------5555555555555555------|
   "and these boys like these girls..."

eb|---------------------------------|
Bb|-----------xx------------xx------|
Gb|-11/13--9--xx--13\11--9--xx------|
Db|--x/-x--x--xx---x\-x--x--xx------| x4  
Ab|--9/11--7--xx--11\-9--7--xx------|
Eb|---------------------------------|
   "lets GO!"

eb|---------------------------------------|
Bb|---------------------------------------|
Gb|--11-11-11-11-11-11-11-11-11-11-11-----|
Db|---x--x--x--x--x--x--x--x--x--x--x-----|
Ab|---9--9--9--9--9--9--9--9--9--9--9-----|
Eb|---------------------------------------|

Outro (repeat chorus)

Play Intro (fade out)

=================================================================
Comments