Good Charlotte - Girls And Boys Chords & Tabs

 

Girls And Boys Chords & Tabs

Good Charlotte Chords & Tabs

Version: 2 Type: Tab 0 ratings
1 star 2 stars 3 stars 4 stars 5 stars
comments

Girls And Boys Tab

   
Okkkkkkkkk so here is my version of Boys and Girls and i think itz right...
so try it... good luck 


(Intro)
Guitar 1:

e -------------|
B -------4-----|
G --------3----|(X4)
D -------------|
A ---3-1-------|
E -4-----------|

(verse)
Guitar 1:

e --------------|
B --------4-----|
G ----------3---|(X4)
D --------------|
A ---3--1-------|
E -4------------|

Guitar 2:
(with a weird shit effect, but im sure this are the right notes)
e-----------|
B-9----11---|
G---8-----8-|(X4)
D-----------|
A-----------|
E-----------|

(pre-chorus)
Guitar 1
(use palm mute in this part till the end)
e-----------------|     e --------------------------------|
B-----------------|     B --------------------------------|
G-----------------|(x2) G --------------------------------|
D-6-6-6-6-8-8-8-8-|     D 6-6-6-6-8-8-8-8-6-6-6-6-6-6-6-6-|
A-x-x-x-x-x-x-x-x-|     A x-x-x-x-x-x-x-x-x-x-x-x-x-x-x-x-|
E-4-4-4-4-6-6-6-6-|     E 4-4-4-4-6-6-6-6-4-4-4-4-4-4-4-4-|

Guitar 2(continues as in da verse but this time play it 3 times)
e-----------|      e----------------|
B-9----11---|      B-9-9-9-9-9-9-9-9|(while guitar1 is playin the last 6x4)
G---8-----8-|(X3)  G----------------|                         
D-----------|      D----------------|                         
A-----------|      A----------------|
E-----------|      E----------------|

Chorus:
(Both guitars)- if u listen to the song u will probably know when to change of
chord and the timming too... im too lazy
e-----------------|
B-----------------|
G-8------7--------|
D-x------x-----6--| (x2)
A-6------5-----x--|
E--------------4--|


(repeat Verse)
(repeat Pre chorus)
(do the chorus again but this time do it 4 times not 2, do the 3rd time with a
different timming...)

(bridge)
Guitar 1
[ Tab from: http://www.guitartabs.cc/tabs/g/good_charlotte/girls_and_boys_tab_ver_2.html ]
e--------------------------------------------------------|
B--------------------------------------------------------|
G-10-12--8-8-8-8--x-x-12-10-8-8-8-8--x-x-10-12-8-8-8-8-8-|
D-x---x--x-x-x-x--x-x--x--x-x-x-x-x--x-x--x--x-x-x-x-x-x-|(1st part)
A-8--10--6-6-6-6--x-x-10--8-6-6-6-6--x-x--8-10-6-6-6-6-6-|
E--------------------------------------------------------|

e----------------------------------------------------------|
B----------------------------------------------------------|(2nd part)
G-10-12--8-8-8-8--x-x-12-10-8-8-8-8--x-x-10-12-8-8-8-8-8-10|
D-x---x--x-x-x-x--x-x--x--x-x-x-x-x--x-x--x--x-x-x-x-x-x--x|till end of brigde)
A-8--10--6-6-6-6--x-x-10--8-6-6-6-6--x-x--8-10-6-6-6-6-6--8|
E----------------------------------------------------------|


Guitar 2 ( joins on the 2nd time guitar 1 plays the 2nd part of the bridge)
e------------------------------------------------------------------------------
B-11-11-11-11-11-11-11-11-(x2)11b13-11-11-11-11-11-11-11-11-(x2)-11-11-11-11-11
G------------------------------------------------------------------------------
D------------------------------------------------------------------------------
A------------------------------------------------------------------------------
E------------------------------------------------------------------------------

e-------------------------------------------------------|
B-13-13-13-13-13-15-15-15-15-15-16-16-16-16-16-16-16-16-|
G-------------------------------------------------------|
D-------------------------------------------------------|
A-------------------------------------------------------|
E-------------------------------------------------------|

then u Repeat the Chorus 2 times, the 1st time with a different timming... and
then u gotta do the intro again till the end of the song... u gotta listen to the
song aight? thatz the only way u'll know what im talkin about... 

thatz all fellas... hope u like it... i think it sounds right...
good charlotte for life! 

Good Charlotte's RiOtGiRl
Comments