Good Charlotte - Girls And Boys Chords & Tabs

 

Girls And Boys Chords & Tabs

Good Charlotte Chords & Tabs

Version: 1 Type: Tab 0 ratings
1 star 2 stars 3 stars 4 stars 5 stars
comments

Girls And Boys Tab

Good Charlotte
boys and girls



Intro: guitar 1  
E-----------0--------------0------------ 
B-----2-----2--------------2------------ 
G---2-----2---------2------------------- 
D-----------------2------2-------------- 
A--0----2-------0------2---------------- 
E--------------------------------------- 

Verse: guitar 2
E----------12------------12--------------------- 
B-14-12-10------14-12-10------------------------ 
G----------------------------------------------- 
D----------------------------------------------- 
A----------------------------------------------- 
E---------------------------555-77777-555-77777- 

Chorus: gtr. 1
E---------------------------------------- 
B---------------------------------------- 
G---9-9-9--11-11-11---------------------- 
D--------------------7-7-7--------------- 
A---7-7-7--9--9--9---7-7-7--------------- 
E--------------------5-5-5--------------- 

Chorus: gtr. 2
E----------------------------------- 
B----------------------------------- 
G---9-9-9-9-9-9--------------------- 
D---9-9-9-9-9-9-7-7-7--------------- 
A---7-7-7-6-6-6-7-7-7--------------- 
E---------------5-5-5---------------

Verse: guitar 1
E-----------0--------------0---------- 
B-----2-----2--------------2---------- 
G---2-----2---------2----------------- 
D-----------------2------2------------ 
A--0----2-------0------2--------------
E------------------------------------- 

Verse: gtr. 2 
E----------12------------12--------------------- 
B-14-12-10------14-12-10------------------------ 
G----------------------------------------------- 
D----------------------------------------------- 
A----------------------------------------------- 
E---------------------------555-77777-555-77777- 

Chorus: gtr.1 
E--------------------------------------- 
B--------------------------------------- 
G---9-9-9--11-11-11--------------------- 
D--------------------7-7-7-------------- 
A---7-7-7--9--9--9---7-7-7-------------- 
E--------------------5-5-5-------------- 

Chorus: gtr. 2 
E---------------------------------------- 
B---------------------------------------- 
G---9-9-9-9-9-9-------------------------- 
D---9-9-9-9-9-9-7-7-7-------------------- 
A---7-7-7-6-6-6-7-7-7-------------------- 
E---------------5-5-5-------------------- 
[ Tab from: http://www.guitartabs.cc/tabs/g/good_charlotte/girls_and_boys_tab.html ]
1st Bridge "And these boys like these girls..": both grt 1 and 2 
E-------------------------------------- 
B-------------------------------------- 
G---9-9-9-9-9-9------------------------ 
D---9-9-9-9-9-9-7-7-7------------------ 
A---7-7-7-6-6-6-7-7-7------------------ 
E---------------5-5-5------------------ 

2nd Bridge: gtr. 1 & 2 X 4   both guitars [play this then the one plays the high part
E--------------------------------------- 
B--------------------------------------- 
G---11-13-9-9-9-13-11-9-9-9------------- 
D--------------------------------------- 
A---9--11-7-7-7-11-9--7-7-7------------- 
E--------------------------------------- 

E------------------------------------ 
B------------------------------------ 
G--11-11-11-11----------------------- 
D------------------------------------ 
A--9--9--9--9------------------------ 
E------------------------------------- 

2nd Bridge: gtr. 1 (while gtr 1 plays gtr. 2 plays bridge 1)
E-----7-7-7-7-7-7-9-9-7-7-7-7-7-------- 
B-----5-5-5-5-5-5-5-5-5-5-5-5-5--------
G-------------------------------------- 
D-------------------------------------- 
A--------------------------------------
E-------------------------------------- 

E--7-7-7-7--9-9-9-9-9--9--9--9--12-12-12-12- 
B--5-5-5-5--7-7-7-7-11-11-11-11-10-10-10-10- 
G------------------------------------------- 
D------------------------------------------- 
A------------------------------------------- 
E------------------------------------------- 

Chorus: both guitars 
E------------------------------------- 
B------------------------------------ 
G---9-9-9-9-9-9---------------------- 
D---9-9-9-9-9-9-7-7-7---------------- 
A---7-7-7-6-6-6-7-7-7---------------- 
E---------------5-5-5----------------

Outro: "All of these boys yeh n all of these girls..." guitar 1 
E-----------0--------------0----------- 
B-----2-----2--------------2----------- 
G---2-----2---------2------------------ 
D-----------------2------2------------- 
A--0----2-------0------2--------------- 
E-------------------------------------- 

Outro: guitar 2 
E----------12------------12------------ 
B-14-12-10------14-12-10---------------
G-------------------------------------- 
D-------------------------------------- 
A-------------------------------------- 
E--------------------------------------
Comments