Good Charlotte - Girls And Boys Chords & Tabs

 

Girls And Boys Chords & Tabs

Good Charlotte Chords & Tabs

Version: 2 Type: Bass Tab 0 ratings
1 star 2 stars 3 stars 4 stars 5 stars
comments

Girls And Boys Bass Tab

   
(8X or so)
Educated with money........
G-------------|
D-------------|
A--00-7-------|
E------6------|


Chorus
G------------------------------------|
D------------------------------------|
A--666666-555555-777777777-----------|
E------------------------------------|


12X or somewhere around there
G-------------|
D-------------|
A--00-7-------|
E------6------|

Chorus
G------------------------------------|
D------------------------------------|
A--666666-555555-777777777-----------|
E------------------------------------|


(And these girls like these boy)6X
G---------------|
D---------------|
A-666666-888888-|
E---------------|
[ Tab from: http://www.guitartabs.cc/tabs/g/good_charlotte/girls_and_boys_btab_ver_2.html ]
Bridge
G-------------------------------------------|
D-------------------------------------------|
A-776-776-776-776-776-776-776-776-6666666666|
E-------------------------------------------|


Chorus
G------------------------------------|
D------------------------------------|
A--666666-555555-777777777-----------|
E------------------------------------|

G---------------|
D---------------|
A-666666-888888-|
E---------------|

Chorus
G------------------------------------|
D------------------------------------|
A--666666-555555-777777777-----------|
E------------------------------------|

G---------------|
D---------------|
A-666666-888888-|
E---------------|

 Ending (go until the songs done)
G-------------|
D-------------|
A-0-7---------|
E-----6-------|
Comments