Good Charlotte - Girls And Boys Chords & Tabs

 

Girls And Boys Chords & Tabs

Good Charlotte Chords & Tabs

Version: 1 Type: Bass Tab 0 ratings
1 star 2 stars 3 stars 4 stars 5 stars
comments

Girls And Boys Bass Tab

--------------------------------------------------------------------------------
                         Boys And Girls - Good Charlotte
--------------------------------------------------------------------------------

Artist: Good Charlotte
Song: Boys And Girls (Track 6)
Albulm: The Young And The Hopeless
Tabbed by: Zero Is Great Man
Tunning: BEADG

Main Riff: (Intro/Verse/Outro)
G|-----------------------------------|
D|-----------------------------------|
A|------3-1--------3-1-------3-1-----|
E|-4-4--------4-4-------4-4----------|
B|-----------------------------------|
[ Tab from: http://www.guitartabs.cc/tabs/g/good_charlotte/girls_and_boys_btab.html ]
Chorus: "Girls don't like boys, girls like..."
G|-----------------------------------|
D|-----------------------------------|
A|-----------------------------------|
E|----------6-6-6-6--4-4-4-4-4-4-4-4-|
B|-4-4-4-4---------------------------|

Chorus Part 2: "And these girls like these boys..."
G|--------------------------------------------------------|
D|--------------------------------------------------------|
A|-6-6-6-6-6-6-6-6----------------------------------------|
E|------------------6-6-6-6-6-6--8-8-8-8-8-8--4-4-4-4-4-4-|
B|--------------------------------------------------------|


| ~ - Vibreto
| b - Bend Note
|() - Bend to fret pitch
| s - Slap
| t - Tap
| x - Muted Note
| . - Palm Mute
| + - Harmonics
| / - Slide up
| \ - Slide down
| p - Pull off
| h - Hammer on

=========================================================================
Comments