Good Charlotte - Ghost Of You Chords & Tabs

 

Ghost Of You Chords & Tabs

Good Charlotte Chords & Tabs

Version: 3 Type: Tab 0 ratings
1 star 2 stars 3 stars 4 stars 5 stars
comments

Ghost Of You Tab

Song:Ghost of you
Album:The Chronicles of life and Death
Artist:Good Charlotte
Tabbed By:GuitarAmp58

Intro:
e|--------------------------------------------------------------------|
B|--------------------------------------------------------------------|
G|-888/66666\111111/66666\8888/66\8/4-444444\6\888/66666\111111/66666\|
D|-xxx/xxxxx\-x-x-x/xxxxx\xxxx/xx\x/x-xxxxxx\x\xxx/xxxxx\-x-x-x/xxxxx\|
A|-666/44444\-9-9-9/44444\6666/44\6/2-222222\4\666/44444\-9-9-9/44444\|
E|--------------------------------------------------------------------|

e|-------------------------|
B|-------------------------|
G|-8888/66\8/4-444444\6\8~-|
D|-xxxx/xx\x/x-xxxxxx\x\x~-|
A|-6666/44\6/2-222222\4\6~-|
E|-------------------------|
[ Tab from: http://www.guitartabs.cc/tabs/g/good_charlotte/ghost_of_you_tab_ver_3.html ]
Verse:
e|-----0--0--0--|
B|--1--0--0--1--|
G|--2--1--1--2--|x2
D|--2--0--2--3--|
A|-----2--2--0--|
E|-----3--0--0--|

Pre Chorus:
e|--------------|
B|--------------|
G|--666-3333-4--|x4
D|--666-3333-4--|
A|--444-1111-2--|
E|--------------|

Chorus:Listen for Strumming
e|-----------|
B|-----------|
G|--6--3--4--|x2
D|--6--3--4--|
A|--4--1--2--|
E|-----------|

Fill:
e|------------------------------------------------|
B|------------------------------------------------|
G|-888/66666\111111/66666\8888/66\8/4-444444\6\8~-|
D|-xxx/xxxxx\-x-x-x/xxxxx\xxxx/xx\x/x-xxxxxx\x\x~-|x1
A|-666/44444\-9-9-9/44444\6666/44\6/2-222222\4\6~-|
E|------------------------------------------------|

Bridge:Clean
e|--------------|
B|--------------|
G|--6--4--------|x2
D|--6--4--4--3--|
A|--4--2--4--3--|
E|--------2--1--|

Order:
Intro
Verse
Prechorus
Chorus
Fill
Verse
Prechorus
Chorus
Bridge
Chorus
Comments