Good Charlotte - Festival Song Chords & Tabs

 

Festival Song Chords & Tabs

Good Charlotte Chords & Tabs

Version: 3 Type: Tab 0 ratings
1 star 2 stars 3 stars 4 stars 5 stars
comments

Festival Song Tab

   
tuning: (E,A,D,G,B,E) low to high


intro:

1|-----------------------------------
2|-----------------------------------
3|-----------------------------------
4|--2-2-2----------------------------
5|--0-0-0--2-2-2--7-7-7-7--5-5-5-5---
6|---------0-0-0--5-5-5-5--3-3-3-3---


main riff:

1|-------------------------------
2|-------------------------------
3|-------------------------------
4|--7-7-7-7----------------------
5|--5-5-5-5--7-7-7-7--5-5-5-5----
6|-----------5-5-5-5--3-3-3-3----

[ Tab from: http://www.guitartabs.cc/tabs/g/good_charlotte/festival_song_tab_ver_3.html ]
chorus:

1|----------------------
2|----------------------
3|----------------------
4|--777777--------------
5|--555555-77777-55555--
6|---------55555-33333--

occasional chorus:

1|-----------------------------
2|-----------------------------
3|-----------------------------
4|--77777-------------4444-----
5|--55555-77777-55555-2222-----
6|--------55555-33333----------


ending:  just mess around with thos chords and you get where its played at.

1|---------------
2|---------------
3|---------------
4|--5-----5------
5|--3--7--3--5---
6|----5------3---
Comments