Good Charlotte - Emotionless Chords & Tabs

 

Emotionless Chords & Tabs

Good Charlotte Chords & Tabs

Version: 2 Type: Chords 0 ratings
1 star 2 stars 3 stars 4 stars 5 stars
comments

Emotionless Chords

as everyone know im a newb here but anyway this is my first tab and im confident that 
is right. im sorry for not including rythm or strumming pattern but if you just listen to 
song youll figure it out.
enjoy!!!
ps..post your comments...appreciate it.

Eb-5-/-3---3---|
Bb-7-/-5---3---|
Gb-0-/-0---0---|
Db-x-/-x---x---|
Ab-7-/-5---3---|
Eb-------------|
   strumming isnt tabbed of course but listen to the song.
thats the intro. and verse
[ Tab from: http://www.guitartabs.cc/tabs/g/good_charlotte/emotionless_crd_ver_2.html ]
chorus
Eb-3---3----|
Bb-3---3----|
Gb-0---0----|
Db-0---2----|
Ab-2---3----|
Eb-3--------|

bridge

Eb-3---3---3---|
Bb-1---4---3---|
Gb-2---5---0---|
Db-2---5---0---|
Ab-----3---x---|
Eb-----3---3---|


Eb-3---3---3---|
Bb-1---4---3---|
Gb-2---5---0---|
Db-2---5---0---|
Ab-----3---x---|
Eb-----3---3---|


Eb-3---3---|
Bb-1---4---|
Gb-2---5---|
Db-2---5---|
Ab-----3---|
Eb-----3---|

chorus

outro

Eb-2---3---2---3---2---3---3-|
Bb-3---1---3---1---3---1---0-|
Gb-4---2---4---2---4---2---0-|
Db-4---2---4---2---4---2---x-|
Ab-2-------2-------2-------3-|
Eb-2-------2-------2---------|
Comments