Good Charlotte - East Coast Anthem Chords & Tabs

 

East Coast Anthem Chords & Tabs

Good Charlotte Chords & Tabs

Version: 2 Type: Tab 0 ratings
1 star 2 stars 3 stars 4 stars 5 stars
comments

East Coast Anthem Tab

   
East Coast Anthem - Good Charlotte - Self Titled - Track 4
Standard Tuning

Riff 1
E-0-0-00-0000000-0-0-00-0000000-0-0-00-00000000-----
B-1-1-11-1111111-1-1-11-1111111-1-1-11-11111111-----
G-2-2-22-0000000-2-2-22-0000000-2-2-22-00000002-----
D-2-2-22-0000000-2-2-22-0000000-2-2-22-00000002-----
A-0-0-00-0000000-0-0-00-0000000-0-0-00-00000000-----
E---------------------------------------------------

Verse
E-0--0-00-------------------
B-1--1-11-----5-5-5-55555---
G-2--2-22-4-4-5-5-5-55555---
D-2--2-22-5-5-5-5-5-55555---
A-0--0-00-5-5-3-3-3-33333---
E---------3-3--------------- 4x

Chorus
E----------------------------
B-------5-55-55--------------
G--2-22-5-55-55-4-44-4-4444--
D--3-33-5-55-55-5-55-5-5555--
A--3-33-3-33-33-5-55-5-5555--
E--1-11---------3-33-3-3333-- 3x

Last Part of Chorus
E--------------------------------------
B-------5-55-55-0-00-0-0000000---------
G--2-22-5-55-55-0-00-0-0000000---------
D--3-33-5-55-55-2-22-2-2222222---------
A--3-33-3-33-33-2-22-2-2222222---------
E--1-11---------0-00-0-0000000---------

then go back to riff 1, then verse, then chorus

Bridge Part 1 (Guitar 1) is just riff 1
Bridge Part 1 (Guitar 2)
E---------------------------------------------------
B-10--10---10-10---10--10---10-10---10--10---10-10--
G-x---x----x--x----x---x----x--x----x---x----x--x---
D-7---7----7--7----7---7----7--7----7---7----7--7---
A---------------------------------------------------
E---------------------------------------------------
[ Tab from: http://www.guitartabs.cc/tabs/g/good_charlotte/east_coast_anthem_tab_ver_2.html ]
(continued)
E---------------------------------------------------
B-10--10---10-10---101010101010/121212-5555---------
G-x---x----x--x----x-x-x-x-x-x--x-x-x--xxxx---------
D-7---7----7--7----7-7-7-7-7-7//9-9-9--2222---------
A---------------------------------------------------
E---------------------------------------------------

(continued)
E---------------------------------------------------
B-101010101010/121212-5555-101010101010/121212-5555-
G-x-x-x-x-x-x--x-x-x--xxxx-x-x-x-x-x-x--x-x-x--xxxx-
D-7-7-7-7-7-7//9-9-9--2222-7-7-7-7-7-7//9-9-9--2222-
A---------------------------------------------------
E---------------------------------------------------

Bridge Part 2 (Guitar 1)
E-------------------------------------------------------------------
B-------------------------------------------------------------------
G-------------------------------------------------------------------
D--3333333355555555777777777777777733333333555555552222222222222----
A--3333333355555555777777777777777733333333555555552222222222222----
E--1111111133333333555555555555555511111111333333330000000000000----
"cuz on the east...coast... we ride, until the day we dieieieieieie"

Bridge Part 2 (Guitar 2)
E--15-15-15-15-15-15-15-15-15-15-15-15-15-15-15-15--
B--x--x--x--x--x--x--x--x--x--x--x--x--x--x--x--x---
G--12-12-12-12-12-12-12-12-12-12-12-12-12-12-12-12--
D---------------------------------------------------
A---------------------------------------------------
E---------------------------------------------------

then it goes back to the chorus

Last Chord (Am)
E-0-----
B-1-----
G-2-----
D-2-----
A-0-----
E-0-----
Comments