Good Charlotte - Dont Wanna Stop Chords & Tabs

 

Dont Wanna Stop Chords & Tabs

Good Charlotte Chords & Tabs

Version: 1 Type: Tab 0 ratings
1 star 2 stars 3 stars 4 stars 5 stars
comments

Dont Wanna Stop Tab



---------------------------------Good Charlotte - I don t wanna stop--------------------------------

Shit,this is a very cool song and it s my favourite one from Good Charlotte!


----------------------------------------------------------------
----------------------------------------------------------------
----------------------------------------------------------------   2x
-5--5--5-5-5--9--9--9-9-9--10--10--10-10-10--/-12--12--12-12-12-
-5--5--5-5-5--9--9--9-9-9--10--10--10-10-10--/-12--12--12-12-12-
-3--3--3-3-3--7--7--7-7-7---8---8---8--8--8--/-10--10--10-10-10-

Bass Verse


---------------------------------------------                --------------
---------------------------------------------                --------------
-5--5--5-5-/-7--7--7-7-------------4--4--4-4-   2x  then:    -5--5--5-5--7-
-5--5--5-5-/-7--7--7-7--5--5--5-5--4--4--4-4-                -5--5--5-5--7-
-3--3--3-3-/-5--5--5-5--5--5--5-5--2--2--2-2-                -3--3--3-3--5-
------------------------3--3--3-3------------                --------------


--------------------------------------------------
--------------------------------------------------
--------------------------------------------------
-5--5--5-5-5--9--9--9-9-9--10--10--10-10-10--/-12-
-5--5--5-5-5--9--9--9-9-9--10--10--10-10-10--/-12-
-3--3--3-3-3--7--7--7-7-7---8---8---8--8--8--/-10-


----------------------------------------------------------------
----------------------------------------------------------------
----------------------------------------------------------------   
-5--5--5-5-5--9--9--9-9-9--10--10--10-10-10--/-12--12--12-12-12-
-5--5--5-5-5--9--9--9-9-9--10--10--10-10-10--/-12--12--12-12-12-
-3--3--3-3-3--7--7--7-7-7---8---8---8--8--8--/-10--10--10-10-10-


Bass Verse

[ Tab from: http://www.guitartabs.cc/tabs/g/good_charlotte/dont_wanna_stop_tab.html ]
---------------------------------------------                --------------
---------------------------------------------                --------------
-5--5--5-5-/-7--7--7-7-------------4--4--4-4-   2x  then:    -5--5--5-5--7-
-5--5--5-5-/-7--7--7-7--5--5--5-5--4--4--4-4-                -5--5--5-5--7-
-3--3--3-3-/-5--5--5-5--5--5--5-5--2--2--2-2-                -3--3--3-3--5-
------------------------3--3--3-3------------                --------------


--------------------------------------------------
--------------------------------------------------
--------------------------------------------------
-5--5--5-5-5--9--9--9-9-9--10--10--10-10-10--/-12-
-5--5--5-5-5--9--9--9-9-9--10--10--10-10-10--/-12-
-3--3--3-3-3--7--7--7-7-7---8---8---8--8--8--/-10-


----------------------------------------------------------------
----------------------------------------------------------------
----------------------------------------------------------------   
-5--5--5-5-5--9--9--9-9-9--10--10--10-10-10--/-12--12--12-12-12-
-5--5--5-5-5--9--9--9-9-9--10--10--10-10-10--/-12--12--12-12-12-
-3--3--3-3-3--7--7--7-7-7---8---8---8--8--8--/-10--10--10-10-10-


-----------------------------------------
-----------------------------------------
-5--5--5-5-------------7--7--7-7-7-7-7-7-   4x
-5--5--5-5--5--5--5-5--7--7--7-7-7-7-7-7-
-3--3--3-3--5--5--5-5--5--5--5-5-5-5-5-5-
------------3--3--3-3--------------------


---------------------------------------------                
---------------------------------------------                
-5--5--5-5-/-7--7--7-7-------------4--4--4-4-   2x  then:  
-5--5--5-5-/-7--7--7-7--5--5--5-5--4--4--4-4-             
-3--3--3-3-/-5--5--5-5--5--5--5-5--2--2--2-2-           
------------------------3--3--3-3------------


------------------------------
------------------------------
-5--5--5-5--------------------
-5--5--5-5--5--5--5-5-5-5-5-5-
-3--3--3-3--5--5--5-5-5-5-5-5-
------------3--3--3-3-3-3-3-3-

I wanna stop now!The other Tabs are not complete!So I tabed it.Have fun!

nofxel@firemail.de



Comments