Good Charlotte - Day That I Die Chords & Tabs

 

Day That I Die Chords & Tabs

Good Charlotte Chords & Tabs

Version: 5 Type: Tab 0 ratings
1 star 2 stars 3 stars 4 stars 5 stars
comments

Day That I Die Tab

   
Song:The Day I Die
Artist: Good Charlotte
Album:The Young and the Hopeless
Tabbed by: darkchylde_20

INTRO:guitar2
|---------------------------------------------------------------------------------|
|---------------------------------------------------------------------------------|
|-------------------------------------------------------------2-----2-----2-----2-|
|-------------------------------------------------------2-2h4---2h4---2h4---2h4---|
|-2-4-4-4-2-4-2-2-2-4-5-4-2-0-4-2-0-2-4-4-4-2-4-5-4-2-0---------------------------|
|---------------------------------------------------------------------------------|

Verse strummed

     A        E      Dsus2      A
|----0--------0--------0--------0----------|
|----2--------0--------2--------2----------|
|----2-x6-----1-x6-----3-x6-----2-x6-------|
|----2--------2--------0--------2----------|
|----0--------2--------0--------0----------|
|------------------------------------------|

Mid Verse
  Am        E   Dsus2
|--0--------0-----0----------|
|--1--------0-----2-x12------|
|--2--------1-----3----------|
|--2-x6-----2-x6--0----------|
|--0--------2----------------|
|--0--------0----------------|

Verse
[ Tab from: http://www.guitartabs.cc/tabs/g/good_charlotte/day_that_i_die_tab_ver_5.html ]
Pre Chorus twice
    E      A
|---0------0---------------------------------------------------------|
|---0------2---------------------------------------------------------|
|---1-x6---2-x6- stop on last A--------------------------------------|
|---2------2---------------------------------------------------------|
|---2------0---------------------------------------------------------|
|---0----------------------------------------------------------------|


Chorus play twice

   A     E   Dsus2   A
|--0-----0-----0-----0------------------------------------------------|
|--2-----0-----2-----2------------------------------------------------|
|--2-x6--1-x6--3-x6--2-x6---------------------------------------------|
|--2-----2-----0-----2------------------------------------------------|
|--0-----2-----------0------------------------------------------------|
|--------0------------------------------------------------------------|


Verse

Mid Verse

Pre Chorus

Chorus

Intro (solo)

Pre Chorus x3

Chorus

Ending
|-0----0-----0---------------------------|
|-2----0-----2---------------------------|
|-2-x6-1-x6--3-x6------------------------|
|-2----2-----0---------------------------|
|-0----2---------------------------------|
|------0---------------------------------|

Thats all!What a great song by Good Charlotte.........
Comments