Good Charlotte - Day That I Die Chords & Tabs

 

Day That I Die Chords & Tabs

Good Charlotte Chords & Tabs

Version: 3 Type: Tab 0 ratings
1 star 2 stars 3 stars 4 stars 5 stars
comments

Day That I Die Tab

Song:
Artist: Good Charlotte
Tuning: Standard (EBGDAE)
Tabber: Rob Marston (rob@leftatom.com)
Notes: Good Charlotte rules!

Intro (Guitar 1)

E-|---4-4-4-4-4-4---|---6-6-6-6-6-6---|---4-4-4-4-4-4---|---4-4-4-4-4-4---|
B-|---4-4-4-4-4-4---|---6-6-6-6-6-6---|---4-4-4-4-4-4---|---4-4-4-4-4-4---|
G-|---5-5-5-5-5-5---|---8-8-8-8-8-8---|---6-6-6-6-6-6---|---5-5-5-5-5-5---| Repeat
D-|---6-6-6-6-6-6---|---8-8-8-8-8-8---|---6-6-6-6-6-6---|---6-6-6-6-6-6---|
A-|---6-6-6-6-6-6---|---6-6-6-6-6-6---|---4-4-4-4-4-4---|---6-6-6-6-6-6---|
E-|---4-4-4-4-4-4---|---6-6-6-6-6-6---|---4-4-4-4-4-4---|---4-4-4-4-4-4---|


Intro (Guitar 2)

E-|------------------|------------------------|
B-|------------------|------------------------|
G-|------------------|------------------------|
D-|------------------|------------------------|
A-|---s3---3-1-3-1---|---1-1---s4-3-1-3-------|
E-|------------------|------------------6-4---|
[ Tab from: http://www.guitartabs.cc/tabs/g/good_charlotte/day_that_i_die_tab_ver_3.html ]
E-|----------------------|-------------------------------|
B-|----------------------|-------------------------------|
G-|----------------------|---------1-----------1-----1---|
D-|----------------------|---1-1h3---1h3-1-1h3---1h3-----|
A-|---s3---3-1-3s4-3-1---|-------------------------------|
E-|----------------------|-------------------------------|


The Song:

E-|---4-4-4-4-4-4---|---6-6-6-6-6-6---|---4-4-4-4-4-4---|---4-4-4-4-4-4---|
B-|---4-4-4-4-4-4---|---6-6-6-6-6-6---|---4-4-4-4-4-4---|---4-4-4-4-4-4---|
G-|---5-5-5-5-5-5---|---8-8-8-8-8-8---|---6-6-6-6-6-6---|---5-5-5-5-5-5---| Repeat
D-|---6-6-6-6-6-6---|---8-8-8-8-8-8---|---6-6-6-6-6-6---|---6-6-6-6-6-6---|
A-|---6-6-6-6-6-6---|---6-6-6-6-6-6---|---4-4-4-4-4-4---|---6-6-6-6-6-6---|
E-|---4-4-4-4-4-4---|---6-6-6-6-6-6---|---4-4-4-4-4-4---|---4-4-4-4-4-4---|


The rest of it should be pretty easy to figure out. I think this chord is the only
extra one they throw in. Maybe, maybe not. Have fun!

E-|---3---|
B-|---3---|
G-|---5---|
D-|---5---|
A-|---3---|
E-|---3---|
Comments