Good Charlotte - Complicated Chords & Tabs

 

Complicated Chords & Tabs

Good Charlotte Chords & Tabs

Version: 1 Type: Tab 0 ratings
1 star 2 stars 3 stars 4 stars 5 stars
comments

Complicated Tab

   
Good Charlotte - Complicated

		This song is not very complicated:)

Intro:
E----------0-------------|
B--------------1---------|
G-----3----------3-------|
D-------2----------2-----|
A---3----------------3---|
E------------------------|

Verses:

     (C7)              (F)

E---0---0---x-x-x-x---1---1---x-x-x-x----|
B---1---1---x-x-x-x---1---1---x-x-x-x----|
G---3---3---x-x-x-x---2---2---x-x-x-x----| (repeat)
D---2---2---x-x-x-x---3---3---x-x-x-x----|
A---3---3---x-x-x-x---3---3---x-x-x-x----|
E---x---x---x-x-x-x---1---1---x-x-x-x----|


Chorus:
[ Tab from: http://www.guitartabs.cc/tabs/g/good_charlotte/complicated_tab.html ]
   (C)         (G)          (Am)         (E)      (Am)      (E)            (G)

E---0-----------x------------0------------0--------0---------0--------------x-----|
B---1-----------x------------1------------0--------1---------0--------------3-----|
G---0-----------0------------2------------1--------2---------1--------------0-----|
D---2-----------0------------2------------2--------2---------2--------------0-----|
A---3-----------2------------0------------2--------0---------2--------------2-----|
E---0-----------3------------x------------0--------x---------0--------------3-----|

       Yeah we been here for so many years..........so many years, still it seems...

That's it!
Comments