Good Charlotte - Click Chords & Tabs

 

Click Chords & Tabs

Good Charlotte Chords & Tabs

Version: 1 Type: Tab 0 ratings
1 star 2 stars 3 stars 4 stars 5 stars
comments

Click Tab

          band: The good Charlotte
          song: Click
                              ~=hold      ^= pull 
            (INTRO)
           1|------------------------------------------------------------
           2|------------------------------------------------------------
           3|------------------------------------------------------------ 
           4|------------------------------------------------------------
           5|--5-7-9-7----5-7-9-7----5-7-9-7-9-11-9-7--------------------
           6|------------------------------------------------------------     repeat x1
             (intro continued) 
           1|------------------------------------------------------------     
           2|------------------------------------------------------------
           3|------------------------------------------------------------
           4|------------------------------------------------------------
           5|--5-7-9-7---5-7-9-5----5-7-9-7-5^~-------------------------- 
           6|------------------------------------------------------------  
          
             (verse)
          
           1|----------------------|
           2|----------------------|
           3|-7-----x------4---x---|
           4|-7-----7------4---4---| repeat x1
           5|-5-----7------2---4---|
           6|-x-----5------x---4---|
          
           (same as intro)
          
           (chourus)
          repeat x1
           1|-----------------------------------|-----------------------
           2|-----------------------------------|-----------------------
           3|---7-7-7---x-x-x-----4-4-4---------|-5-5-5----x-x-x---4-4-4
           4|---7-7-7---7-7-7-----4-4-4----5-5-5|-5-5-5----5-5-5---4-4-4
           5|---5-5-5---7-7-7-----2-2-2----5-5-5|-7-7-7----5-5-5---2-2-2 (hold)
           6|---x-x-x---5-5-5-----x-x-x----3-3-3|-x-x-x----7-7-7---x-x-x
            repeat the whole thing couple of times 
           
             (after chorous"only second chorous")
                  repeat  x1
              1|------------------------
              2|------------------------
              3|7-7-7-----x-x-x----x-x-x
              4|7-7-7-----7-7-7----5-5-5
              5|5-5-5-----7-7-7----5-5-5
              6|x-x-x-----5-5-5----3-3-3
           ( outro )
          5|----7-9-9-7----5~~~~----------
[ Tab from: http://www.guitartabs.cc/tabs/g/good_charlotte/click_tab.html ]
Comments