Goo Goo Dolls - You Never Know Chords & Tabs

 

You Never Know Chords & Tabs

Goo Goo Dolls Chords & Tabs

Version: 1 Type: Bass Tab 0 ratings
1 star 2 stars 3 stars 4 stars 5 stars
comments

You Never Know Bass Tab

Standard Tuning

Intro:
G|------------------------------------------------------------|
D|------------------------------------------------------------| x2
A|-3--3--3--------5--5--5-----2--3--3--3--------5--5--5--7--5-|
E|----------1--0-----------3--------------1--0----------------|

Verse:
G|------------------------------------------------------------|
D|------------------------------------------------------------| x2
A|-3--3--3--------5--5--5-----2--3--3--3--------5--5--5--7--5-|
E|----------1--0-----------3--------------1--0----------------|

Chorus: X2
G|----------------------------------------------|
D|----------------------------------------------| 
A|-3--3--3-3-3/5--5-5-5-5-----------------------|
E|------------------------1-1-1-1-0h1-1-1-1-1/3-|

G|--------------------------------------------------------|
D|--------------------------------------------------------|
A|-3--3--3-3-3-0--0--0--0-0-0-----------------------------|
E|-----------------------------1-1-1--1-1-1--1-1-1--1-1-1-|

Verse:
G|------------------------------------------------------------|
D|------------------------------------------------------------| x2
A|-3--3--3--------5--5--5-----2--3--3--3--------5--5--5--7--5-|
E|----------1--0-----------3--------------1--0----------------|
[ Tab from: http://www.guitartabs.cc/tabs/g/goo_goo_dolls/you_never_know_btab.html ]
Chorus: X2
G|----------------------------------------------|
D|----------------------------------------------| 
A|-3--3--3-3-3/5--5-5-5-5-----------------------|
E|------------------------1-1-1-1-0h1-1-1-1-1/3-|

G|--------------------------------------------------------|
D|--------------------------------------------------------|
A|-3--3--3-3-3-0--0--0--0-0-0-----------------------------|
E|-----------------------------1-1-1--1-1-1--1-1-1--1-1-1-|

Bridge: X2
G|----------------------------------------|
D|----------------------------------------| 
A|-5--5-5-5-5/7--7-7-7-7-7/8-8-8-8--8-7-5-|
E|----------------------------------------|

G|-----------------------------------------|
D|-----------------------------------------| 
A|-5--5-5-5-5\3--3-3-3-3-------------------|
E|-----------------------3-3-3-3-3-3-3-3-3-|

Outro: X2
G|--------------------------------------------------|
D|--------------------------------------------------| X3
A|-3--3--3-3-3--------------------------------------|
E|--------------3--3--3-3-3---1-1-1-1-0h1-1-1-1-1/3-|

G|------------------------------------------------|
D|------------------------------------------------| 
A|-3--3--3-3-3 -------------7/8-8-8--8-8-8--8-8-8-|
E|--------------3--3--3-3-3-----------------------|

G|--------------------------------------------------|
D|--------------------------------------------------| X3
A|-3--3--3-3-3--------------------------------------|
E|--------------3--3--3-3-3---1-1-1-1-0h1-1-1-1-1/3-|

G|-----------------------------|
D|-----------------------------| 
A|-3--3--3-3-3 -------------3*-|
E|--------------3--3--3-3-3----|
Comments