Goo Goo Dolls - Walkin With My Monkey Chords & Tabs

 

Walkin With My Monkey Chords & Tabs

Goo Goo Dolls Chords & Tabs

Version: 1 Type: Bass Tab

Walkin With My Monkey Bass Tab

   
  Em7b5  F13  F#sus4  Gmaj7  Gmaj13
G----------------------0--0------------|
D--2-0--2-4-4-2--------------2---------|
A--------------------------------------|
E-0----0---------1-------------3-------|
[ Tab from: http://www.guitartabs.cc/tabs/g/goo_goo_dolls/walkin_with_my_monkey_btab.html ]
Verse: C#m7  C7  C7sus4         Cm7b5                          Cm11
G-------------------------1-0-1-1---------------------------------------|
D------1-0-1-1----------3---------3-0-------1-0-1-----------------------|
A----3---------3-0---1---------------1----3-------3--5-------0-3--------|
E-1----------------1-------------------1---------------1-1-1-----2-1-2--|
play that 5 times