Goo Goo Dolls - Two Days In February Chords & Tabs

 

Two Days In February Chords & Tabs

Goo Goo Dolls Chords & Tabs

Version: 2 Type: Tab 0 ratings
1 star 2 stars 3 stars 4 stars 5 stars
comments

Two Days In February Tab

Capo on 3 fret
(all notes relatives to the capo)

This is the chords that Jhonny play all along the intro and verses!!
I'm sure 100% the're right!

That's how the INTRO is played:
   

|---0-----0-----0-----0-------------------------------
|---0-----0-----0-----0-------------------------------
|---1-----1-----4-----6-------------------------------      X 2
|---2-----2-----4-----7-------------------------------
|---2-----4-----x-----7-------------------------------
|---0-----0-----4-----5-------------------------------


Then:

|---0-----2--------------------------------------------
|---0-----4--------------------------------------------
|---1-----4-----2--1h2--2p1----------------------------
|---2-----4-----2--2----2------------------------------
|---2-----2--------------------------------------------
|---0-----x---------------------------------------------


To play the VERSES you have to do the intro for two times!


Then the CHORUS:
[ Tab from: http://www.guitartabs.cc/tabs/g/goo_goo_dolls/two_days_in_february_tab_ver_2.html ]
|---------0-----0-----0-----0-----2-----2-----0-----------------
|---------0-----0-----0-----0-----4-----5-----0-----------------
|---------1-----1-----1-----1-----4-----4-----2-----------------  
|---------2-----2-----2-----2-----4-----4-----2-----------------    X 2
|---------2-----2-----2-----2-----2-----2-----0-----------------
|---0--0--0--0--0--0--0--0--0-----x-----x-----x-----------------

Then start the verse again with this:

|---------0-----0-----0-----0-----------------------------------
|---------0-----0-----0-----0-----------------------------------
|---------1-----1-----1-----1-----------------------------------
|---------2-----2-----2-----2-----------------------------------
|---------2-----2-----2-----2-----------------------------------
|---0--0--0--0--0--0--0--0--0-----------------------------------

And after doing that start to singing the verse again like at the beginning!
That's all It's a quite simple song!
If you have any question about it you can e-mail me at: fabio.pg@libero.it
SEE YOU soon then by FABIO-DILO-GUITAR-MAN
Comments