Goo Goo Dolls - Two Days In February Chords & Tabs

 

Two Days In February Chords & Tabs

Goo Goo Dolls Chords & Tabs

Version: 1 Type: Bass Tab 0 ratings
1 star 2 stars 3 stars 4 stars 5 stars
comments

Two Days In February Bass Tab

   
Goo Goo Dolls
Two Days In Feruary
Hold Me up

Tabbed By David Grinter (davids_black_balloon@hotmail.com)

VERSE 1:
    F# D# A# B     F# D# A# B     F# D# A# B    F# C# B
G|--------------|--------------|--------------|---------|
D|--------------|--------------|--------------|---------|
A|-----6--1--2--|-----6--1--2--|-----6--1--2--|---------|
E|-/2-----------|--2-----------|--2-----------|-2-/9\-7-|

VERSE 2:
    F# D# A# B     F# D# A# B     F# D# A# B    F# C# B
G|--------------|--------------|--------------|---------|
D|--------------|--------------|--------------|---------|
A|-----6--1--2--|-----6--1--2--|-----6--1--2--|---------|
E|--2-----------|--2-----------|--2-----------|-2-/9\-7-|


CHORUS:
   F#         C#        B  F#
G|-----------------------------------|
D|-----------------------------------|
A|-----------------------------------|
E|-2--2--2-2--9--9-9-9\-7\-2--2--2-2-|

   F#         C#        B  F#
G|-----------------------------------|
D|-----------------------------------|
A|-----------------------------------|
E|-2--2--2-2--9--9-9-9\-7\-2--2--2-2-|

[ Tab from: http://www.guitartabs.cc/tabs/g/goo_goo_dolls/two_days_in_february_btab.html ]
VERSE 3:
    F# D# A# B     F# D# A# B     F# D# A# B    F# C# B
G|--------------|--------------|--------------|---------|
D|--------------|--------------|--------------|---------|
A|-----6--1--2--|-----6--1--2--|-----6--1--2--|---------|
E|--2-----------|--2-----------|--2-----------|-2-/9\-7-|


CHORUS:
   F#         C#        B  F#
G|----------------------------------|
D|----------------------------------|
A|----------------------------------|
E|-2--2--2-2--9--9-9-9\-7\-2--2--2-2|

   F#         C#        B  F#
G|----------------------------------|
D|----------------------------------|
A|----------------------------------|
E|-2--2--2-2--9--9-9-9\-7\-2--2--2-2|


SOLO:

   F#      G#      B
G|-------------------------
D|-------------------------
A|-------------------------
E|-2--2-2--4--4-4--7--7-7--

   F#      G#      B       C#     B      A#     G#     F#
G|--------------------------------------------------------
D|--------------------------------------------------------
A|--------------------------------------------------------
E|-2--2-2--4--4-4--7--7-7--9-9--9-7-7--7-6-6--6-4-4--4-2-2

CHORUS:

   F#         C#        B  F#
G|----------------------------------
D|----------------------------------
A|----------------------------------
E|-2--2--2-2--9--9-9-9\-7\-2--2--2-2

   F#         C#        B  F#
G|----------------------------------
D|----------------------------------
A|----------------------------------
E|-2--2--2-2--9--9-9-9\-7\-2--2--2-2

   F# C# B    B        F#
G|----------------------
D|----------------------
A|----------------------
E|-2--9--7----7--7--7--2

Something along those lines, there are a few imporvisations which i
missed out but this sounds fine as it is.

Comments