Goo Goo Dolls - Take Me Out To The Ball Game Chords & Tabs

 

Take Me Out To The Ball Game Chords & Tabs

Goo Goo Dolls Chords & Tabs

Version: 1 Type: Tab 0 ratings
1 star 2 stars 3 stars 4 stars 5 stars
comments

Take Me Out To The Ball Game Tab

   
Riff:

e -----------------
B -0-1-3--1--0-----
G -0-0-0--0--0-----
D -0-0-0--0--0-----
A -----------------
E -----------------

 Chords:

Em7 - 022033

A4/7 - x02233================================================
Intro:
e -------------------------------------
B -------------------------------------
G --4-5-(4)--7---4-5-(4)---5----5-5----
D --5-5------7---5-5-------5----5-5----
A -----------5-------------3----3-3----
E -------------------------------------

(riff)             D5

Take me out to the ball game

(riff)               D5

Take me out with the crowd(on this part, play the 022 part then the 33 part of the chord)

Em7                      A4/7

Buy me some peanuts and cracker-jacks

A4/7                D5

I don't care if I ever get back(riff)                       D5

Well it's root, root for the home team

(riff)                   C5

If they don't win it's a shame

        G5 A5 B5                  C5         D5  C5-B5-A5-G5

Now it's 1, 2, 3 strikes - you're out at the old ball game
[ Tab from: http://www.guitartabs.cc/tabs/g/goo_goo_dolls/take_me_out_to_the_ball_game_tab.html ]
Break:D5  D5-D5   Cadd9  Cadd9/B G             Cadd9 Cadd9/B  Dsus4

e ------3-----3----------3-----|----3-----3------------3---
B ------3-----3------------3---|----3-----3---3---3-3---3--
G ---0------0--------0-------0-|--0-----0-----2---2-2------
D -----------------0---------0-|--------------0---0-0------
A -3------2--------------------|-3----2--------------------
E ---------------3-------------|---------------------------   

Cadd9  Cadd9/B G             Cadd9 Cadd9/B  Dsus4

e ------3-----3----------3-----|----3-----3------------3---
B ------3-----3------------3---|----3-----3---3---3-3---3--
G ---0------0--------0-------0-|--0-----0-----2---2-2------
D -----------------0---------0-|--------------0---0-0------
A -3------2--------------------|-3----2--------------------
E ---------------3-------------|---------------------------

(riff)                      D5

Now it's root, root for the home team

(riff)                   C5

If they don't win it's a shame

        G5 A5 B5                  C5         D5  C5-B5-A5-G5

Now it's 1, 2, 3 strikes - you're out at the old ball game
(Announcer #1: Oh, what a game!)End sliding down off a G5
(Announcer #2: A message from Major League Baseball)
Comments