Goo Goo Dolls - Sympathy Chords & Tabs

 

Sympathy Chords & Tabs

Goo Goo Dolls Chords & Tabs

Version: 7 Type: Tab 0 ratings
1 star 2 stars 3 stars 4 stars 5 stars
comments

Sympathy Tab

Goo Goo Dolls - Sympathy
Capo on 1st fret


[-----3𦠫3-3-3-3   {intro--|
[-----3𦠫3-3-3-3-----------|
[-----0𥥤0-0-0-0-----------|
[-----0𥥤0-0-0-0-----------|
[-0-2-3𦌼-0-0-0-0-----------|
[-------0梮3-3-3-3-----------|

Stranger than your sympathy
and this is my apology
I take myself from the inside out
And all my fears have pushed you out

[-----3-3-3-3---3-3-3-3---3-3-3-3-3-|
[-----3-3-3-3---3-3-3-3---3-3-3-3-3-|
[-----0-0-0-0---2-2-2-2---0-0-0-0-0-|
[-----0-0-0-0---0-0-0-0---2-2-2-2-2-|
[-----2-2-2-2---x-x-x-x---3-3-3-3-3-|
[-----3-3-3-3---x-x-x-x---x-x-x-x-x-|

And I wish for things that I don't need
(All I wanted)
And what I chased wont set me free
(All I wanted)
And I get scared but I'm not crawlin' on my knees

[-----3-3-3-3---3-3-3-3---3-3-3-3-3-| -3-3-3-3-3-| -3--3--3-----------------|
[-----3-3-3-3---3-3-3-3---3-3-3-3-3-| -3-3-3-3-3-| -3--3--3-3-3-3-0---------|
[-----0-0-0-0---2-2-2-2---0-0-0-0-0-| -0-0-0-0-0-| -0--0--2----------2-0----|
[-----0-0-0-0---0-0-0-0---2-2-2-2-2-| -2-2-0-0-0-| -0--2--x-----------------|
[-----2-2-2-2---x-x-x-x---3-3-3-3-3-| -2-2-2-2-2-| -2--3--x-----------------|
[-----3-3-3-3---x-x-x-x---x-x-x-x-x-| -0-0-3-3-3-| -3--x--x-----------------|


Oh, yeah
Everything's all wrong, yeah
Everything's all wrong, yeah

[-----3--3--3--3-3-3-3-|
[-----3--3--3--3-3-3-3-|
[-----0--0--0--0-0-0-0-|
[-----0--0--0--0-0-0-0-|
[-0-2-3--2--0--0-0-0-0-|
[--------0--x--3-3-3-3-|

And stranger than you sympathy
Take these things, so I don't feel
All these thoughts from the inside out
And now my head's filled with doubt

[-----3-3-3-3---3-3-3-3---3-3-3-3-3-|
[-----3-3-3-3---3-3-3-3---3-3-3-3-3-|
[-----0-0-0-0---2-2-2-2---0-0-0-0-0-|
[-----0-0-0-0---0-0-0-0---2-2-2-2-2-|
[-----2-2-2-2---x-x-x-x---3-3-3-3-3-|
[-----3-3-3-3---x-x-x-x---x-x-x-x-x-|
[ Tab from: http://www.guitartabs.cc/tabs/g/goo_goo_dolls/sympathy_tab_ver_7.html ]
We're taught to lead the life we choose
(All I wanted)
You know your love's run out on you
(All I wanted)
And you can't see when all your dreams aren't coming true


[-----3-3-3-3---3-3-3-3---3-3-3-3-3-| -3-3-3-3-3-| -3--3--3-----------------|
[-----3-3-3-3---3-3-3-3---3-3-3-3-3-| -3-3-3-3-3-| -3--3--3-3-3-3-0---------|
[-----0-0-0-0---2-2-2-2---0-0-0-0-0-| -0-0-0-0-0-| -0--0--2----------2-0----|
[-----0-0-0-0---0-0-0-0---2-2-2-2-2-| -2-2-0-0-0-| -0--2--x-----------------|
[-----2-2-2-2---x-x-x-x---3-3-3-3-3-| -2-2-2-2-2-| -2--3--x-----------------|
[-----3-3-3-3---x-x-x-x---x-x-x-x-x-| -0-0-3-3-3-| -3--x--x-----------------|

Oh, yeah
It's easy to forget, yeah
When you choke on the regrets, yeah

[-----3--3--3--3-3-3-3-|
[-----3--3--3--3-3-3-3-|
[-----0--0--0--0-0-0-0-|
[-----0--0--0--0-0-0-0-|
[-0-2-3--2--0--0-0-0-0-|
[--------0--x--3-3-3-3-|

And stranger than you sympathy
And all these thoughts you stole from me
And I'm not sure where I belong
And now where's home and now more wrong

[-3-------------3----------3--------3-]
[-3-------------2----------3--------3-]
[-0-------------2----------0--------0-]
[-2-------------x----------2--------0-]     { X2
[-2-------------x----------3--------2-]
[-0-------------x----------x--------3-]


And I was in love with things I tried to make you belive I was
And I wouldn't be the one to kneel before the dreams I wanted

[-3-------------3----------3--------3-|-3--3--3--------------------|
[-3-------------2----------3--------2-|-3--3--3-3-3-3-0------------|
[-0-------------2----------0--------2-|-0--0--2----------2-0-------|
[-2-------------x----------2--------x-|-0--2--x--------------------|   { X1
[-2-------------x----------3--------x-|-0--2--x--------------------|
[-0-------------x----------x--------x-|-3--x--x--------------------|

And all the dark and all the lies were all the empty things disguised at me

[-----3--3--3--3-3-3-3-|
[-----3--3--3--3-3-3-3-|
[-----0--0--0--0-0-0-0-|
[-----0--0--0--0-0-0-0-|
[-0-2-3--2--0--0-0-0-0-|
[--------0--x--3-3-3-3-|

Mmm, yeah
Stranger than your sympathy
Stranger than your sympathy
Mmm hmm mmm   {end on G}
Comments