Goo Goo Dolls - So Outta Line Chords & Tabs

 

So Outta Line Chords & Tabs

Goo Goo Dolls Chords & Tabs

Version: 1 Type: Tab 0 ratings
1 star 2 stars 3 stars 4 stars 5 stars
comments

So Outta Line Tab

   
F#5(IX) - x9(11)(11)xx

E5(VII) - x799xx

B5 - x244xxx

C#5 - x466xx

Eb5 - X688xxIntro:

G#5      F#5(IX)  E5(VII) (4x)Verse:

G#5                        E5(VII)

I heard the floor creak or so I thought

G#5                      E5(VII) 

I had my head rubbing on the ceiling 

G#5                      E5(VII)

They say that indecision makes one weak 

G#5                           F#5(IX)-E5(VII)

My indecision's suddenly been deepenedChorus:

B5  C#5        E5(VII)

One day ain't forever

B5  C#5        E5(VII) 

You'll find your time

Eb5-Eb5-Eb5-E5(VII)-Eb5-C#5 

You look outside it's snow 

Eb5-Eb5-Eb5-E5(VII)-Eb5-C#5 

Been snow so long you know

Eb5-Eb5-Eb5-E5(VII)-Eb5-C#5-B5-C#5  

Just feel like lettin' go
[ Tab from: http://www.guitartabs.cc/tabs/g/goo_goo_dolls/so_outta_line_tab.html ]
e --------------------7-7h9p7----
B ----------5-5h7p5--------------
G --4h6p4------------------------
D -------------------------------
A -------------------------------
E -------------------------------

                                  
So outta lineG#5      F#5(IX)  E5(VII) (2x)(verse)

You've worked so hard for everything you've got 

Ten minutes later you're a loser 

Count your blessings and the ones you love 

At this point we beggars can't be choosers (chorus)

One day ain't forever 

You'll find your time 

You look outside it's snow 

Been snow so long you know 

Just feel like lettin' go

So outta lineSolo:

G#5      F#5(IX)  E5(VII) (4x)(chrous)

One day ain't forever 

You'll find your time 

You look outside it's snow 

Been snow so long you know 

Just feel like lettin' go

So outta line(chorus - first half)

One day ain't forever 

One day ain't forever
e -------------------------------
B -------------------------------
G --4h6p4---4-4h6p4---4-4h6p4----
D -------------------------------
A -------------------------------
E -------------------------------

e --------------------7-7h9p7----14-14-14-
B ----------5-5h7p5-----------------------
G --4h6p4---------------------------------
D ----------------------------------------
A ----------------------------------------
E ----------------------------------------
Comments