Goo Goo Dolls - Slide Chords & Tabs

 

Slide Chords & Tabs

Goo Goo Dolls Chords & Tabs

Version: 2 Type: Tab 0 ratings
1 star 2 stars 3 stars 4 stars 5 stars
comments

Slide Tab

   
Standard Tuning (E A d G b E)

 Intro (2x)
|-----------------------------------------|
|-----3--------3----------3--------3---3--|
|---0---0----2---2------0---0----0--------|
|-2--------0-------0----------------------|
|---------------------3-------------------|
|------------------------------3-----2----|

 Main Riff
(Strum Accordingly)            Pause            Pause
"Could you wisper""I wanna wake up where you are"
|-0--0--0-------|-------------------------------------0-0--|
|-3--3--3-------|--------3-----3----------3-----3-----3-3--|
|-0--2--0-------|------2---2---0------------2---0-----2-2--|
|-2--0--2-------|-0-/2-------0-2-----0-/2-----0-2-----0-0--|
|-2-----3-------|--------------3----------------3-----0-0--|
|-0-------------|------------------------------------------|

 Mid Riff (3x)             End w/ this (strum)
"Why don't you slide"
|------------------------|-------------
|-3-3-3--3-3--3-3-3-3----|-3-----------
|-0-0-0--0-0--0-0-0-0----|-2-----------
|-2-2-2--0-0--0-0-0-0----|-0-----------
|-3-3-3--0-0--2-2-2-2----|-0-----------
|-------------3-3-3-3----|-------------
[ Tab from: http://www.guitartabs.cc/tabs/g/goo_goo_dolls/slide_tab_ver_2.html ]
 Back to Main Riff
"Don't you love..." "I wanna wake up where you are"
|-0----0----0-----|-----------------------------------0-0--|
|-3----3----3-----|-3--3--3--3--3--3--------3-----3---3-3--|
|-0----2----0-----|-2--2--2--2--2--0----------2---0---2-2--|
|-2----0----2-----|-0--0--0--0--0--2---0-/2-----0-2---0-0--|
|-2----0----3-----|-0--0--0--0--0--3--------------3---0-0--|
|-0---------------|----------------------------------------|

"And I'll do anything you ever dreamed 
to be complete"                           "That Fall"
|-------------------------------------|--------------|
|-3-3-3--3-3--3-3-3-3--3-3--3-3-3-3-3-|-------3-3-3--|
|-0-0-0--0-0--0-0-0-0--0-0--2-2-2-2-2-|-------2-2-2--|
|-2-2-2--0-0--0-0-0-0--0-0--0-0-0-0-0-|-------0-0-0--|
|-3-3-3--0-0--2-2-2-2--0-0--0-0-0-0-0-|-------0-0-0--|
|-------------3-3-3-3-----------------|--------------|

Interlude (Strum)
"What you feel is what
 you are and what
 you are is beautiful"                  "I wanna wake up..."
|-0---0---0-----0--0--|-0--0--0---0--0 -0-------------0--|
|-3---3---3--3--3--3--|-3--3--3---3--3--3-------3-----3--|
|-0---2---0--0--0--2--|-0--2--0---2--2--2---------2---2--|
|-2---0---2--0--2--0--|-2--0--2---0--0--0--0-/2-----0-0--|
|-2---0---3--2--3--0--|-2--0--3---0--0--0-------------0--|
|-0----------3--------|-0--------------------------------|

Back To Mid Riff
|-0--0--0--0--0--0--0-|-0-0-0-0-0-0-0-0-0-0--|
|-3--3--3--3--3--3--3-|-3-3-3-3-3-3-3-3-3-3--|
|-0--0--0--0--0--0--2-|-0-0-0-0-0-0-0-0-0-0--|
|-2--0--2--0--2--0--0-|-2-0-2-0-2-0-2-2-2-2--|
|-3--2--3--2--3--2--0-|-3-2-3-2-3-2-0-0-0-0--|
|----3-----3-----3----|---3---3---3----------|

 Outro (2x)                           2nd Time End On
|------------------------------------|-------
|-----3-------3---------3-------3---3|--3----
|---0---0---2---0-----0---0---0------|--0----
|-2-------0-------0------------------|--0----
|-------------------3----------------|--2----
|---------------------------3-----0--|--3----
Comments