Goo Goo Dolls - Slide Chords & Tabs

 

Slide Chords & Tabs

Goo Goo Dolls Chords & Tabs

Version: 1 Type: Bass Tab 0 ratings
1 star 2 stars 3 stars 4 stars 5 stars
comments

Slide Bass Tab

   
Song: Slide
Artist: Goo Goo Dolls
Album: Dizzy Up The Girl
Standard Tuning:  E  A  D  G


The Original tab for this by Gdfather@aol.com
was pretty accurate but I think that some of
it could be corrected slightly.
Here's how I play it:

Intro: Rest

Verse 1: Rest

Pre-chorus:

G----------------------
D----------------------
A--4-----------4-------
E----------------------

Chorus

G-----------------------------------------------------------------------
D-----------------------------------------------------------------------
A---4-4---------4-4---------4-4---------6-6-6-6-6-6-6-6-6-6-6-6-6-6-6-6-
E-------0h4-4-4-----0h4-4-4-----0h4-4-4---------------------------------

Verse 2:

G-------------------------------------------------------
D-------------------------------------------------------
A-------------------6-6-6-6-6-6-6-6-4-4-4-4-4-4-4-4-----
E---1-1-1-1-1-1-1-1-------------------------------------

G-------------------------------------------------------
D-------------------------------------------------------
A-------------------6-6-6-6-6-6-6-6-4-4-4-4-4-4-4-4-----
E---1-1-1-1-1-1-1-1-------------------------------------

Pre-chorus
Chorus

Verse 2:

G-----------------------------------------------------------------------
D-----------------------------------------------------------------------
A---4-4---------4-4---------4-4---------6-6-6-6-6-6-6-6-6-6-6-6-6-6-6-6-
E-------0h4-4-4-----0h4-4-4-----0h4-4-4---------------------------------

Verse 3:

G------------------------------------------------------------------
D------------------------------------------------------------------
A------------------6-6-6-6-6-6-6-6-4-4-4-4-3-3-3-3-4-4-4-4-6-6-6-6-
E--1-1-1-1-1-1-1-1-------------------------------------------------

G----------------------------------------------------
D----------------------------------------------------
A------------------3h6-6-6-6-6-6-6-4-4-4-4-4-4-4-4---
E--1-1-1-1-1-1-1-1-----------------------------------


Solo: Same as Chorus.
[ Tab from: http://www.guitartabs.cc/tabs/g/goo_goo_dolls/slide_btab.html ]
Verse 2
Verse 3

Chorus 4 times

Outro rest

End on

E--4~

-------------------------------------------------------------------------
Tabbed by Gdfather@aol.com
Chorus

G----------------------------------------------------------------
D----------------------------------------------------------------
A-----4-4----------4-4-----------4-4------------------------
E----------4-4-4--------4-4-4--------4-4-4----------------


G----------------------------------------------------------------
D----------------------------------------------------------------
A---6--6--6--6--6--6--6--6--6--6--6--6--6--6--6--6---
E----------------------------------------------------------------


Verse 1

G----------------------------------------------------------------
D----------------------------------------------------------------
A--8-8-8-8-8-8-8-8-----6-6-6-6-6-6-6-6---4-4-4-4-4-4-4-4-4-4-4-4-4-4-4-4-
E----------------------------------------------------------------
                    %

Verse 2


G----------------------------------------------------------------
D----------------------------------------------------------------
A--8-8-8-8-8-8-8-8---6-6-6-6-6-6-6-6-----------------
E----------------------------------------------------------------


G----------------------------------------------------------------
D----------------------------------------------------------------
A--4-4-4-4---3-3-3-3---4-4-4-4---6-6-6-6-------------
E----------------------------------------------------------------


G----------------------------------------------------------------
D----------------------------------------------------------------
A--8-8-8-8-8-8-8-8--6-6-6-6-6-6-6-6--4-4-4-4-4-4-4-4-4-4-4-4-4-4-4-4-
E----------------------------------------------------------------

Song ending

G----------------------------------------------------------------
D----------------------------------------------------------------
A----------------------------------------------------------------
E--4-------------------------------------------------------------

Comments