Goo Goo Dolls - Name Chords & Tabs

 

Name Chords & Tabs

Goo Goo Dolls Chords & Tabs

Version: 7 Type: Tab 0 ratings
1 star 2 stars 3 stars 4 stars 5 stars
comments

Name Tab

   
                     NAME - Goo Goo Dolls
-----------------------------------------------------------------------------
Tuning: DAEAEE
       (EADGBE) -CHANGE YOUR B OR 2 STING TO AN E OR 1 STRING 
Intro/Verse
(PLAY 4 TIMES)

E|-------0----------0--------0-------0---------0----------0-------0------0--
E|-------0----------0--------0-------0---------0----------0-------0------0--
A|-----0--------0---------0-----0------------0--------0---------0------0----
E|-----0-----0------------0--------0-----0---0-----0------------0------0----
A|--0-------------0----0-----------------5--------------5----0-------0------
D|--7------------------6-------------------------------------4-------2------

E|----------------------0---------0-----0--0----0--0--0--0------------------
E|----------------------0---------0-----0--0----0--0--0--0------------------
A|----0---------0-------0---------0-----0--0----0--0--0--0------------------
E|----5-/-7-----7-h-9---9-/-12----12----12-12---0--0--0--0------------------
A|----7-/-9-----9-------9-/-12----12----12-12---12-12-12-12-----------------
D|--0-----------------------------0-----0--0----0--0--0--0------------------

E|--------------0-0---------------------------------------------------------
E|--------------0-0---------------------------------------------------------
A|----0---------0-0---0------0----------------------------------------------
E|----5-/-7-H9--9-9---9-P-7--0---7-H-9-7------------------------------------
A|----7-/-9-----9-9---9------9---9-----9------------------------------------
D|--0-----------------------------------------------------------------------

Chours

E|--0-0-4-5-------0----------0---0----0-0-0---0---0---0-0-0----------------|
E|--0-0-0-0-------0----------0---0----0-0-0---0---0---0-0-0----------------|
A|--0-0-0-0-----0----4-2--0--0---0----0-0-0---0---0---0-0-0----------------|
E|--0-0-0-0-----0---------0--0---0----0-0-0---0---0---0-0-0----------------|
A|--4-4-4-4---2--------------5---5----5-5-5---5---5---5-5-5----------------|
D|--4-4-4-4---2--------------0---0----0-0-0---0---0---0-0-0----------------|

E|--0-0-4-5-------0-------0--0---0----0-0-----0---0-0-0-0-0----------------|
E|--0-0-0-0-------0--4-5--5--0---0----0-0-5---0---9-9-7-7-0----------------|
A|--0-0-0-0-----0----2-4--0--0---0----0-0-4---0---7-7-5-5-0----------------|
E|--0-0-0-0-----0---------0--0---0----0-0-----0----------------------------|
A|--4-4-4-4---2--------------5---5----5-5-----0----------------------------|
D|--4-4-4-4---2--------------0---0----0-0----------------------------------|
[ Tab from: http://www.guitartabs.cc/tabs/g/goo_goo_dolls/name_tab_ver_7.html ]
E|--0-0-4-5------0---4-5-----0---0----0-0-0---0---0---0-0-0----------------|
E|--0-0-0-0------0---0-0-----0---0----0-0-0---0---0---0-0-0----------------|
A|--0-0-0-0------0---2-4-----0---0----0-0-0---0---0---0-0-0----------------|
E|--0-0-0-0------0-----------0---0----0-0-0---0---0---0-0-0----------------|
A|--4-4-4-4---2--------------7---7----7-7-7---7---7---7-7-7----------------|
D|--4-4-4-4---2--------------0---0----0-0-0---0---0---0-0-0----------------|

E|--0-0-4-5-------0--------------------------------------------------------|
E|--0-0-0-0-------0--------------------------------------------------------|
A|--0-0-0-0-----0----4-2-0-------------------------------------------------|
E|--0-0-0-0-----0--------0-------------------------------------------------|
A|--4-4-4-4---2--------------0---------------------------------------------|
D|--4-4-4-4---2--------------0---------------------------------------------|

Repeat verse and chours 1 more time 

SOLO  
    (Strum all 6 strings)
you don't have to play this part perfectly, just get it as close as  you     can. 

e|-------------------------------------------------------------------------|
B|-------------------------------------------------------------------------|
G|--2/4-4-4-4-2-0-0-0-0-0-2-4-2-0-0-0-0-2-4-5--4--4--5--7-7-7-7-7-7-7-7-7--|
D|-------------------------------------------------------------------------|
A|-------------------------------------------------------------------------|
E|-------------------------------------------------------------------------|

E|-------------------------------------------------------------------------|
E|-------------------------------------------------------------------------|
A|--4-4-2-2-4-2-0-0--0--0--0--0--0--0--0--0-2-4-5--4-0-0-0--9-9-9--9-9-9---|
E|-------------------------------------------------------------------------|
A|-------------------------------------------------------------------------|
D|-------------------------------------------------------------------------|

E|-------------------------------------------------------------------------|
E|-------------------------------------------------------------------------|
A|-7/11-12-12-12-12-11-12-12-11-11-11-12-12-12-11-11-11-11-12-14--16/17-17-|
E|-------------------------------------------------------------------------|
A|-------------------------------------------------------------------------|
D|-------------------------------------------------------------------------|

E|---------------------------------------------------0---0---0---0---0-----|
E|----------------------------------------------------0---0---0---0---0----|
A|-16-16-16-16-16-17-16-14-14-12--9-11-11-12-12-12-----0---0---0---0---0---|
E|-------------------------------------------------------------------------|
A|-------------------------------------------------------------------------|
D|-------------------------------------------------------------------------|

NOW PLAY VERSE 2 MORE TIMES AND YOUR DONE


| /  slide up
| \  slide down
| h  hammer-on
| p  pull-off
| ~  vibrato
| +  harmonic
| x  Mute note
===============================================================================
Comments