Goo Goo Dolls - Name Chords & Tabs

 

Name Chords & Tabs

Goo Goo Dolls Chords & Tabs

Version: 3 Type: Chords

Name Chords

   
experiment during the solo by hammering strings with your pinkie while playing the chords.  capo on 2nd fret.

CHORDS:
===============================================================
Cmaj7	        C	        Cadd9	  G	  D	  Em
    0	        0		0	  3	  2	   0
    0	        1		3	  0	  3	   0
    0	        0		0	  0	  2	   0
    2	        2		2	  0	  0	   2
    3           3		3	  2	  0	   2
    0	        0		0	  3	  0	   0
===============================================================

Intro.       x2

e--------------------------------------------------------------------------------------------------------|
B-----------3------------------------3-----------------------3------------------------3--------3---------|
G--------------------------------------------------------------------------------------------------------|
D------0-------0-------0-------0-------0------0------0--------0-----0----------0---------0---------------|
A---------------------------------------------------3---------------3---------------------------------3--|
E---3---------------3-------2--------------2----------------------------------3----------2---------------|

C   Cmaj7   Cadd9    Cmaj7   C   Cadd9

Intro riff.
And even though the moment passed me by.
			Cmaj7    C   Cadd9    Cmaj7   C   Cadd9
I still canít turn away.
Intro riff.
Cause all the dreams you never thought youíd lose.
			      Cmaj7    C    Cadd9    Cmaj7   C   Cadd9
Get tossed along the way.
Intro riff.
The letters that you never meant to send.
			       Cmaj7    C    Cadd9    Cmaj7   C   Cadd9
Get lost and thrown away.

Chorus.
G			 D
And now weíre grown up orphans.
      C		       Em
That never knew their names.
      G	              D
We donít belong to no one.
          C
Thatís a shame.
G	           D
You could hide beside me.
 C	         Em
Maybe for a while.
      G           D            C (hold)
And I wonít tell no one your name.
[ Tab from: http://www.guitartabs.cc/tabs/g/goo_goo_dolls/name_crd_ver_3.html ]
And I wonít tell em your name.

End Chorus.

Intro riff.
Scars are souvenirs you never lose.
		          Cmaj7   C   Cadd9     Cmaj7   C   Cadd9
The past is never far.
Intro riff.
Did you lose yourself somewhere out there.
			  Cmaj7   C   Cadd9   Cmaj7   C   Cadd9
Did you get to be a star.
Intro riff.
And donít it make you sad to know that life.
			       Cmaj7   C   Cadd9   Cmaj7   C   Cadd9
Is more then who you are.

Chorus.
G		    D
You grew up way to fast.
	       C            Em
Now theres nothing left to say.
        G         D             C
And reruns all become our history.
    G                 D         C       Em
A tired song keeps playen on a tired radio.
       G         D             C (hold)
And I wonít tell no one your name.

And I wonít tell em your name.

End Chorus.

Solo.

G  D  C  G  D  C  G  
 C  G  D  C (hold)

Intro riff.
I think about you all the time.
			   Cmaj7   C   Cadd9    Cmaj7   C   Cadd9
But I donít need to sing.
Intro riff.
Itís lonely where you are so come back down.
End riff.
And I wonít tell your name.

Cadd9    C   Cmaj7   G

End riff.
e---------------------------------------------------|
B-----------3-----------3---------------------------|
G---------------------------------------------------|
D-------0----------0--------------------------------|
A---------------------------------------------------|
E----0----------2-----------3-----------------------|

CHORDS:
===============================================================
Cmaj7	        C	        Cadd9	  G	  D	  Em
    0	        0		0	  3	  2	   0
    0	        1		3	  0	  3	   0
    0	        0		0	  0	  2	   0
    2	        2		2	  0	  0	   2
    3           3		3	  2	  0	   2
    0	        0		0	  3	  0	   0
===============================================================