Goo Goo Dolls - Naked Chords & Tabs

 

Naked Chords & Tabs

Goo Goo Dolls Chords & Tabs

Version: 3 Type: Tab 0 ratings
1 star 2 stars 3 stars 4 stars 5 stars
comments

Naked Tab

   
Finally some1 is gona tab this song in a way so it at least sounds good!!
Tune your B to C (johnny style)
Song Flow - 

Chorus intro(optional)
Intro x4
Verse x4
Bridge
Chorus 
Coda
Intro x4
Verse x4
Bridge
Chorus
Coda
Solo - to be completed soon!!
Chorus
Coda x3

Intro:
hit each note randomly as u can
      HERE!!   
e---0-0-0-0----------------------------0--
C-0-0-0-0-0-0-0-x-x-x--0-0-0-0-0-0-0-0---0
G-5-5-5-5-5-5-5-x-x-x-/5-5-5-5-5-4-4-4---4
D-3-3-------3-3-x-x-x-/7-7-7-7-7-5-5-5---5
A-----------------------------------------
E-----------------------------------------
                                4x Yeah i'm ..
or

e-----0--0--0--0--------------------------------------0--
C--0--0--0--0--0--0--0--------0--0--0--0--0--0--0--0--x-0
G--x--9--9--9--9--9--9-x-x-x--9--9--9--9--9--9--9--9--9-x
D-10-10-10-10-10-10-10-x-x-x-/10-10-10-10-10--8--8--8--10
A--8--8-----------8--8-x-x-x-/12-12-12-12-12-10-10-10----
E--------------------------------------------------------

Verse:

..fadin
                        (optional)
e-----0------------------(0)--
C-0-----0-----0-0--0-0-0---(0)
G-5-----------5-5-\4-4-4------
D-3-----------7-7-\5-5-5------
A----------0------------------
E-----------------------------

Bridge:
[ Tab from: http://www.guitartabs.cc/tabs/g/goo_goo_dolls/naked_tab_ver_3.html ]
e-----------------------------------------------
C-----------------------------------------------
G-----------------------------------------------
D-10-10-10-10-10----10-10-10-10-10-10-10--------
A--8--8--8--8--8--7--8--8--8--8--8--8--8--x-x-5-
E-----------------5/----------------------x-x-3/
                  Weigh'd                     down
e-----------------------------------------------------
C-----------------------------------------------------
G-----------------------------------------------------
D-10-10-10-10-10-10-10----10-10-10-10-10-10-10--------
A--8--8--8--8--8--8--8--7--8--8--8--8--8--8--8--x-x-5-
E-----------------------5/----------------------x-x-3\
                        Safe                        now 

Chorus:
occasionally hitting top e when striking C 
               *             *
e--------------------------------
C-------0------0------0------0---
G-------------------------0-----0
D----2------2------2-------------
A---------------0------3---------
E-1------3-----------------------
         Naked inside your fear..     repeat twice and end on
e--------------------------------     first riff.
C-------0------0------0------0---
G-------------------------0-----0
D----2------2------2-------------
A---------------0----------------
E-1------3------------3----------

Coda:
e---------------------------
C---------------------------
G---------------------------
D(5-5-5-5-5-7-3-3-3-3-3-3-3) optional
A-5-5-5-5-5-7-3-3-3-3-3-3-3-
E-3-3-3-3-3-5-1-1-1-1-1-1-1-
anyone!!
Comments