Goo Goo Dolls - Long Way Down Chords & Tabs

 

Long Way Down Chords & Tabs

Goo Goo Dolls Chords & Tabs

Version: 1 Type: Bass Tab 0 ratings
1 star 2 stars 3 stars 4 stars 5 stars
comments

Long Way Down Bass Tab

Long Way Down by the Goo Goo Dolls
(bass tabbed by Heidi Goo)
Goo Goo Dolls Web Site: The World of Goo
http://serial.music.uiowa.edu/~randell/Goo/index.html

Intro:
G -----------------------------------------------
D -----------------------------------------------
A -----------------------------------------------       
E --5--7--7(w/ PM)--10--0-9--0-7--0-5--3----5----
(4 times)

(start figure 1)
G ----------------------------------------- 
D ----------------------------------------- 
A -----------------------------------------        
E--5/7-7-7-7-7-7-7-7-7-7-7-7-7-7-7---------

G ----------------------------------------- 
D ----------------------------------------- 
A -----------------------------------------        
E--7-7-7-7-7-7-7-7-7-7-7-7-7-7-7-7---------
(end figure 1)

Repeat figure 1
Verse:
(figure 1 - 2 times)
G ----------------------------------------- 
D ----------------------------------------- 
A -----------------------------------------        
E--7--5--3---------------5-----------------
(figure 1)

(figure 1 - 2 times)
[ Tab from: http://www.guitartabs.cc/tabs/g/goo_goo_dolls/long_way_down_btab.html ]
Bridge:
G ----------------------------------------- 
D ----------------------------------------- 
A -----------------------------------------        
E--7--5--3---------------5----------3------

G ----------------------------------------- 
D ----------------------------------------- 
A -----------------------------------------        
E ------------------5--------------3-------

G ----------------------------------------- 
D ----------------------------------------- 
A -----------------------------------------        
E -------5----------------7----------------

Chorus:
(intro)

(verse)

(bridge)

(chorus)

Guitar solo (play 4X)
G ----------------------------------------- 
D ----------------------------------------- 
A -----------------------------------------        
E --7-----5-----7------3-------------------

(verse)

(bridge)

(chorus)
                                      
End:
G ----------------------------------------- 
D ----------------------------------------- 
A -----------------------------------------        
E --7-7----5--------7-7-----3--------------


Comments