Goo Goo Dolls - Let Love In Chords & Tabs

 

Let Love In Chords & Tabs

Goo Goo Dolls Chords & Tabs

Version: 1 Type: Tab

Let Love In Tab

   
This is my first tab and I don't really know how to arrange stuff like this, but this is 
correct. So, just listen to the song for timing and how many times to repeat and whatnot.

TUNING: DADADD
[ Tab from: http://www.guitartabs.cc/tabs/g/goo_goo_dolls/let_love_in_tab.html ]
INTRO/VERSE:
D-0-0-0-0-0-0-0-0--0-0-0-0-0-0-0-0-0-0-0-0-0-0-0-0--0-0-0-0-0-0-0-0-|
D-0-0-0-0-0-0-0-0--0-0-0-0-0-0-0-0-0-0-0-0-0-0-0-0--0-0-0-0-0-0-0-0-|
A-0-0-0-0-0-0-0-0--0-0-0-0-0-0-0-0-0-0-0-0-0-0-0-0--0-0-0-0-0-0-0-0-|
D-4-4-4-4-7-7-7-7--0-0-0-0-0-0-0-0-4-4-4-4-7-7-7-7--0-0-0-0-0-0-0-0-|
A-2-2-2-2-5-5-5-5--7-7-7-7-2-2-2-2-2-2-2-2-5-5-5-5--5-5-5-5-0-0-0-0-|
D------------------7-7-7-7-2-2-2-2------------------5-5-5-5-0-0-0-0-|

Chorus:
D-0-0-0-0-0-0-0-0-0-0-0-0-0-0-0-0-0-0-0-0-0-0-0-0-0-0-|
D-0-0-0-0-0-0-0-0-0-0-0-0-0-0-0-0-0-0-0-0-0-0-0-0-0-0-|
A-0-0-0-0-0-0-0-0-0-0-0-0-0-0-0-0-0-0-0-0-0-0-0-0-0-0-|
D-0-0-0-0-0-0-0-0-0-0-0-0-0-0-0-0-0-0-0-0-0-0-0-0-0-0-|
A-0-0-0-0-0-0-5-5-5-5-5-9-9-9-9-9-7-7-7-7-7-5-5-5-5-5-|
D-0-0-0-0-0-0-5-5-5-5-5-9-9-9-9-9-7-7-7-7-7-5-5-5-5-5-|