Goo Goo Dolls - Lazy Eye Chords & Tabs

 

Lazy Eye Chords & Tabs

Goo Goo Dolls Chords & Tabs

Version: 2 Type: Bass Tab 0 ratings
1 star 2 stars 3 stars 4 stars 5 stars
comments

Lazy Eye Bass Tab

   
Artist: Goo Goo Dolls
Song: Lazy Eye

Well the last tab for this, to me seems pretty wrong.
It was out by a long way.
I personally reckon the following tab is better (not perfect):

Intro:
6 bars rest

G-------------------------|--------------------------
D-------------------------|--------------------------
A-------------------------|--------------------------
E-10-10-10-10-10-10-10-10-|--10-10-10-10-10-10-10-10-

Fig 1
       D
G------------------------------|-------------------
D------------------------------|-------------------
A-3h5--5-5--5-5--5-5--5-5--5-5-|--------1--1-1-1-1-
E------------------------------|-1--1-1------------ (X4)


VERSE
FIG 2
G-------------|-----------|------------|------------
D-------------|-----------|------------|------------
A--------x--x-|-1--1------|-------x--x-|-1--1--1--1-
E---1--1------|------x--x-|-1--1-------|------------


FIG 1 (X2)

FIG2

G-----------------|-----------------|-----------------|-----------------|
D-----------------|-----------------|-----------------|-----------------|
A-3-3-3-3-3-3-3-3-|-5-5-5-5-5-5-5-5-|-1-1-1-1-1-1---1-|-1-1-1-1-1-1-1-1-|
E-----------------|-----------------|-----------------|-----------------|

G-----------------|-----------------|-----------------|-----------------|
D-----------------|-----------------|-----------------|-----------------|
A-3-3-3-3-3-3-3-3-|-5-5-5-5-5-5-5-5-|-1-1-1-1-1-1-1-1-|-1-1-1-1-1---3-3-|
E-----------------|-----------------|-----------------|-----------------|

Chorus

FIG 1 (X4)

Verse

Chorus

Bridge type thing

G--------------------|-------------------|-------|
D--------------------|-------------------|-------|
A--------1--1-1-1-1--|--------1--1-1-1-1-|-------|
E-1--1-1-------------|-1--1-1------------|-0~~~~-|

G-----------------|------------------
D-----------------|------------------
A-----------------|------------------
E-0-0-0-0-0-0-0-0-|--0-0-0-0-0-0-0-0-

Then

G-----------------|-----------------|-----------------|-----------------|
D-----------------|-----------------|-----------------|-----------------|
A-3-3-3-3-3-3-3-3-|-5-5-5-5-5-5-5-5-|-1-1-1-1-1-1---1-|-1-1-1-1-1-1-1-1-|
E-----------------|-----------------|-----------------|-----------------|

G-----------------|-----------------|-----------------|-----------------|
D-----------------|-----------------|-----------------|-----------------|
A-3-3-3-3-3-3-3-3-|-5-5-5-5-5-5-5-5-|-1-1-1-1-1-1---1-|-1-1-1-1-1-1-1-1-|
E-----------------|-----------------|-----------------|-----------------|
[ Tab from: http://www.guitartabs.cc/tabs/g/goo_goo_dolls/lazy_eye_btab_ver_2.html ]
G-----------------|-----------------|-----------------|-----------------|
D-----------------|-----------------|-----------------|-----------------|
A-3-3-3-3-3-3-3-3-|-5-5-5-5-5-5-5-5-|-1-1-1-1-1-1-1-1-|-1-1-1-1-1---3-3-|
E-----------------|-----------------|-----------------|-----------------|

Repeat chorus to fade

tabbed by davids_balck_balloon@hotmail.com

-------------------------------------------------------------------------
Tabbed By ~ Erin

This is one of the first songs I learned how to play on the bass. It's 
pretty
easy, but you should have the CD handy to get the timing down. This is also
tabbed for standard tuning, but they play it a half-step down.

Intro: No Bass (5 or 6 bars)

G ------------------|------------------
D ------------------|------------------
A ------------------|------------------
E --0-0-0-0-0-0-0-0-|--0-0-0-0-0-0-0-0-

(Fig. 1) 4x
G ---------------------------------|------------------------
D ---------------------------------|------------------------
A -5h7---7-7--7-7--7-7--7-7--7-7---|---------3--3-3-3-3-----
E ---------------------------------|--3--3-3----------------

(Verse)
G ----------------------------|-----------------
D ----------------------------|-----------------
A ----------------------------|--3--3-------x-x-
E --3-3-------------------x-x-|-----------------

G --------------------------|-----------------------
D --------------------------|-----------------------
A --------------------------|--3--3-----3---3-------
E --3-3------------------x-x|-----------------------

Go back to Fig. 1 play 2x

Play verse

Pre-chorus (Fig. 2)
G -------------------------|---------------------------
D -------------------------|---------------------------
A -5--5--5--5--5--5--5--5--|-7--7--7--7--7--7--7--7--
E -------------------------|---------------------------

G -------------------------|--------------------------
D -------------------------|--------------------------
A --3--3--3--3--3--3-----3-|-3--3--3--3--3--3--3--3--

E -------------------------|--------------------------
G -------------------------|--------------------------
D -------------------------|--------------------------
A -5--5--5--5--5--5--5--5--|-7--7--7--7--7--7--7--7--
E -------------------------|--------------------------

G -------------------------|--------------------------
D -------------------------|--------------------------
A -3--3--3--3--3--3-----3--|-3--3--3--3--3-----5--5-
E -------------------------|--------------------------

   Chorus
(Fig. 1 4x)

(Verse)

(Verse)

(Pre-chorus)

(Chorus)

Guitar Solo ~ play the last measure of Fig. 1 the rest on a long low E

(Pre-chorus)

(Chorus)

(Chorus
Comments