Goo Goo Dolls - Iris Chords & Tabs

 

Iris Chords & Tabs

Goo Goo Dolls Chords & Tabs

Version: 5 Type: Tab 0 ratings
1 star 2 stars 3 stars 4 stars 5 stars
comments

Iris Tab

Goo Goo Dolls - Iris
By:Andrew Mcshan( Guitarguyx182@aol.com)
(DADDDD)
INTRO (x2):
D|---0---0---0---0---0---0---0---0---0---0------|
D|---0---0---0---0---0---0---0---0---0---0------|
D|---0---0---0---0---0---0---0---0---0---0------|
D|--12--12--12--12--12--11--11--11--11--11/12---|
A|----------------------------------------------|
D|----------------------------------------------|

D|---0---0---0---0---0---0---0---0---0---0---0---0---0---0---|
D|---0---0---4---4---4---4---4---2---0---0---0---0---0---0---|
D|---0---0---0---0---0---0---0---0---0---0---0---0---0---0---|
D|---0---0---5---5---5---5---5---4---0---0---0---0---0---0---|
A|-----------------------------------------------------------|
D|-----------------------------------------------------------|
VERSE:
D|--------0-------------0-------------0-------------0------------|
D|-----------0-------------0-------------0-------------0---------|
D|--------------0-------------0-------------0-------------0------|
D|---------------------------------------------0-----------------|
A|---------------------------------------------------------------|
D|---0-------------2-------------5-------------------------------|

D|---0-------------0-------------0-------------0---------|
D|------0-------------0-------------0-------------0------|
D|---------0-------------0-------------0-------------0---|
D|----------------------------------------0--------------|
A|-------------------------------------------------------|
D|--9----------7-------------5---------------------------|
Chorus:
D|---0---0---0---0---0---0---0---0---0---0---0---0---0---|
D|---0---0---0---0---0---0---0---0---0---0---0---0---0---|
D|---0---0---0---0---0---0---0---0---0---0---0---0---0---|
D|---0---0---0---0---0---0---0---0---0---0---0---0---0---|
A|---x---x---x---x---x---x---x---x---x---x---x---x---x---|
D|---9---9---9---9---7---7---7---7---5---5---5---5---5---|

Intro x2 

Verse

Chorus

Interlude:
D|------0-----0-------0-----0-------0-----0---0-----0---|
D|---------0-------------0-------------0---------0------|
D|------------------------------------------------------|
D|------------------------------------------------------|
A|------------------------------------------------------|
D|---9------------11------------12----------------------|

D|------0-----0------0-----0------0-----0---0-----0----------------|
D|---------0------------0------------0---------0-------------------|
D|----------------------------------------------------0-----0------|
D|-------------------------------------------------------0-----0---|
A|-----------------------------------------------------------------|
D|---9------------7------------5-----------------------------------|

D|------0-----0-------0-----0-------0-----0---0-----0---|
D|---------0-------------0-------------0---------0------|
D|------------------------------------------------------|
D|------------------------------------------------------|
A|------------------------------------------------------|
D|---9------------11------------12----------------------|

D|------0-----0------0-----0---0---0---0---0---0---0---0---0---0---|
D|---------0------------0------0---0---0---0---0---0---0---0---0---|
D|-----------------------------0---0---0---0---0---0---0---0---0---|
D|-----------------------------0---0---0---0---0---0---0---0---0---|
A|-----------------------------x---x---x---x---x---x---x---x---x---|
D|---9------------7------------5---5---5---5---5---5---5---5---5---|
[ Tab from: http://www.guitartabs.cc/tabs/g/goo_goo_dolls/iris_tab_ver_5.html ]
D|---0---0---0---0----0----0----0----0----0----0---|
D|---0---0---0---0----0----0----0----0----0----0---|
D|---0---0---0---0----0----0----0----0----0----0---|
D|---0---0---0---0----0----0----0----0----0----0---|
A|---x---x---x---x----x----x----x----x----x----x---|
D|---9---9---9---9---11---11---11---11---11---12---|

D|---0---0---0---0---0---0---0---0---0---0---0---|
D|---0---0---0---0---0---0---0---0---0---0---0---|
D|---0---0---0---0---0---0---0---0---0---0---0---|
D|---0---0---0---0---0---0---0---0---0---0---0---|
A|---x---x---x---x---x---x---x---x---x---x---x---|
D|---5---5---5---5---5---5---5---5---5---5---5---|
Solo
D|-----------------------------------------------|
D|-----------------------------------------------|
D|-------------------------------------11--------|
D|---7/12---11---7/12---14/16---7/12--------11---|
A|-----------------------------------------------|
D|-----------------------------------------------|

D|--------------------------------------------------------|
D|--------------------------------------------------------|
D|-------9/16---16---16---16\-----------------------------|
D|---9--------------------------7-----/----12---/14-------|
A|--------------------------------------------------------|
D|--------------------------------------------------------|

D|-----------------------------------------------|
D|-----------------------------------------------|
D|---------14/18---18---/19\18-------------/18~~~|
D|---/16-------------------------19--------------|
A|------------------------------------19---------|
D|-----------------------------------------------|

Chorus

Outro
D|------0-----0-------0-----0-------0-----0---0-----0---|
D|---------0-------------0-------------0---------0------|
D|------------------------------------------------------|
D|------------------------------------------------------|
A|------------------------------------------------------|
D|---9------------11------------12----------------------|

D|------0-----0------0-----0------0-----0---0-----0----------------|
D|---------0------------0------------0---------0-------------------|
D|----------------------------------------------------0-----0------|
D|-------------------------------------------------------0-----0---|
A|-----------------------------------------------------------------|
D|---9------------7------------5-----------------------------------|

D|------0-----0-------0-----0-------0-----0---0-----0---|
D|---------0-------------0-------------0---------0------|
D|------------------------------------------------------|
D|------------------------------------------------------|
A|------------------------------------------------------|
D|---9------------11------------12----------------------|

D|------0-----0------0-----0---0---0---0---0---0---0---0---0---0---|
D|---------0------------0------0---0---0---0---0---0---0---0---0---|
D|-----------------------------0---0---0---0---0---0---0---0---0---|
D|-----------------------------0---0---0---0---0---0---0---0---0---|
A|-----------------------------x---x---x---x---x---x---x---x---x---|
D|---9------------7------------5---5---5---5---5---5---5---5---5---|
And I'd give up forever to touch you
'Cause I know that you feel me somehow
You're the closest to heaven that I'll ever be
And I don't want to go home right now
And all I can taste is this moment
And all I can breathe is your life
'Cause sooner or later it's over
I just don't want to miss you tonight

Chorus:
And I don't want the world to see me
'Cause I don't think that they'd understand
When everything's made to be broken
I just want you to know who I am

Verse:
And you can't fight the tears that ain't coming
Or the moment of truth in your lies
When everything feels like the movies
Yeah you bleed just to know you're alive

Chorus x3
Interlude
Solo

Chorus

I just want you to know who I am
I just want you to know who I am
I just want you to know who I am
Comments