Goo Goo Dolls - Iris Chords & Tabs

 

Iris Chords & Tabs

Goo Goo Dolls Chords & Tabs

Version: 1 Type: Tab 0 ratings
1 star 2 stars 3 stars 4 stars 5 stars
comments

Iris Tab

Goo Goo Dolls - Iris
From the album Dizzy up the girl
And movie soundtrack City of Angels
1999

This is the real thing. If you want you can play the tones more precise.
But I like it better when you use all the strings. watch the tabbing. 

Intro:
E|---0---0---0---0---0---0---0---0---0---0--0--0--0--0--0--0--0-0-0|
D|---0---0---0---0---0---0---0---0---0---0--0--0--0--0--0--0--0-0-0|
A|---0---0---0---0---0---0---0---0---0---0--0--0--0--0--0--0--0-0-0|
D|---12--12--12--12--11--11--11--11/12---5--5--5--5--4--4--4--4/5/0|
A|---9---9---9---9---9---9---9---9---9---5--5--5--5--5--5--5--5-5-0|
B|---0---0---0---0---0---0---0---0---0---0--0--0--0--0--0--0--0-0-0|   2x

Vers: "And I'd give up forever to touch you"
E|---0---0---0---0---0---0---0-|
D|---0---0---0---0---0---0---0-|
A|---0---0---0---0---0---0---0-|
D|---0---0---0---0---0---0---0-|
A|---X---X---X-------X---X---X-|
B|---3---5---8-------0---10--8-|   4x

Chorus: "And I don't want the world to see me"
E|---0---0---0---0---0---0---0---0----0--0--0--0--0--0--0--0|
D|---0---0---0---0---0---0---0---0----0--0--0--0--0--0--0--0|
A|---0---0---0---0---0---0---0---0----0--0--0--0--0--0--0--0|
D|---12--12--12--12--11--11--11--11---5--5--5--5--4--4--4--4|
A|---9---9---9---9---9---9---9---9----5--5--5--5--5--5--5--5|
B|---0---0---0---0---0---0---0---0----0--0--0--0--0--0--0--0|   4x

E|---0---0---0---0---0---0---0---0---0---0--0--0--0--0--0--0--0-0-0|
D|---0---0---0---0---0---0---0---0---0---0--0--0--0--0--0--0--0-0-0|
A|---0---0---0---0---0---0---0---0---0---0--0--0--0--0--0--0--0-0-0|
D|---12--12--12--12--11--11--11--11/12---5--5--5--5--4--4--4--4/5/0|
A|---9---9---9---9---9---9---9---9---9---5--5--5--5--5--5--5--5-5/0|
B|---0---0---0---0---0---0---0---0---0---0--0--0--0--0--0--0--0-0-0|   2x

Vers: "And you can't fight the tears that ain't coming"
E|---0---0---0---0---0---0---0-|
D|---0---0---0---0---0---0---0-|
A|---0---0---0---0---0---0---0-|
D|---0---0---0---0---0---0---0-|
A|---X---X---X-------X---X---X-|
B|---3---5---8-------0---10--8-|   2x

Chorus: "And I don't want the world to see me"
E|---0---0---0---0---0---0---0---0----0--0--0--0--0--0--0--0|
D|---0---0---0---0---0---0---0---0----0--0--0--0--0--0--0--0|
A|---0---0---0---0---0---0---0---0----0--0--0--0--0--0--0--0|
D|---12--12--12--12--11--11--11--11---5--5--5--5--4--4--4--4|
A|---9---9---9---9---9---9---9---9----5--5--5--5--5--5--5--5|
B|---0---0---0---0---0---0---0---0----0--0--0--0--0--0--0--0|   4x

Bridge:
E|---0---0---0---0---0---0---0-|
D|---0---0---0---0---0---0---0-|
A|---0---0---0---0---0---0---0-|
D|---0---0---0---0---0---0---0-|
A|---X---X---X-------X---X---X-|
B|---0---2---3-------0---10--8-|   2x

E|---0---0---0---0--|-0---0---0---0--|-0--0--|--0--0--0--0--0--0--0--0-|--0-0-0-|
D|---0---0---0---0--|-0---0---0---0--|-0--0--|--0--0--0--0--0--0--0--0-|--0-0-0-|
A|---0---0---0---0--|-0---0---0---0--|-0--0--|--0--0--0--0--0--0--0--0-|--0-0-0-|
D|---12--12--12--12-|-11--11--11--11-|-11/12-|--5--5--5--5--4--4--4--4-|--5/4/0-|
A|---9---9---9---9--|-9---9---9---9--|-9--9--|--5--5--5--5--5--5--5--5-|--5/5/0-|
B|---0---0---0---0--|-0---0---0---0--|-0--0--|--0--0--0--0--0--0--0--0-|--0-0-0-|   3x 

E|---0---0---0---0--|-0---0---0---0--|
D|---0---0---0---0--|-0---0---0---0--|
A|---0---0---0---0--|-12--12--12--12-|
D|---12--12--12--12-|-12--12--12--12-|
A|---9---9---9---9--|-9---9---9---9--|
B|---0---0---0---0--|-0---0---0---0--|   1x

When you play the solo on acoustic like John, you gotta 
be smooth. I'll do my best to tab this one. Listen to 
the song and you'll figure it out. Use your imagination.

Solo:
E|---0--0--7--0--0---0--0--7--0--0---0--0--7--0--0--0--0--0--0--0-|     
D|---0--7--0--7--0---0--7--0--7--0---0--7--0--7--0--0--0--0--0--0-| 
A|---0--0--0--0--0---0--0--0--0--0---0--0--0--0--0--0--0--0--0--0-| 
D|---5--5--5--5--5---4--4--4--4--4---5--5--5--5--5--7--9--9--9--9-| 
A|---5--5--5--5--5---5--5--5--5--5---5--5--5--5--5--7--9--9--9--9-|
B|---0--0--0--0--0---0--0--0--0--0---0--0--0--0--0--0--0--0--0--0-|

[ Tab from: http://www.guitartabs.cc/tabs/g/goo_goo_dolls/iris_tab.html ]
E|---0--0--7--0--0---0--0--7--0--0---0--0--0--0--0-|  
D|---0--7--0--7--0---0--7--0--7--0---0--0--0--0--0-|
A|---0--0--0--0--0---0--0--0--0--0---0--0--0--0--0-|
D|-4/5--5--5--5--5---4--4--4--4--4---4--4--4--4--4-| 
A|---5--5--5--5--5---5--5--5--5--5---2--2--2--2--2-|
B|---0--0--0--0--0---0--0--0--0--0---0--0--0--0--0-|


E|---0--0--0--0--0--0--0--0--0--| or E|---0--0--0--0--0--0--0--0--0--0--0-| 
D|---0--0--0--0--0--0--0--0--0--|    D|---0--0--0--0--0--0--0--0--0--0--0-|
D|---0--0--0--0--0--0--0--0--0--|    D|---0--0--0--0--0--0--0--0--0--0--0-|
D|---0-----0-----0-----0-----0--|    D|---0-----0-----0-----0-----0-----0-|
A|---X-----X-----X-----X-----X--|    A|---X-----X-----X-----X-----X-----0-|
B|---12----14----15----14----12-|    X|---12----14----15----17----15----14|


E|---0--0--7--0--0---0--0--7--0--0---0---0---0---0---0--|  
D|---0--7--0--7--0---0--7--0--7--0---0---0---0---0---0--|
A|---0--0--0--0--0---0--0--0--0--0---12--12--12--12--12-|
D|---5--5--5--5--5---4--4--4--4--4---12--12--12--12--12-| 
A|---5--5--5--5--5---5--5--5--5--5---9---9---9---9---9--|
B|---0--0--0--0--0---0--0--0--0--0---0---0---0---0---0--|

Bridge:
E|---0---0---0---0---0---0---0-|
D|---0---0---0---0---0---0---0-|
A|---0---0---0---0---0---0---0-|
D|---0---0---0---0---0---0---0-|
A|---X---X---X-------X---X---X-|
B|---0---2---3-------0---10--8-|   2x

Chorus: "And I don't want the world to see me"
E|---0---0---0---0---0---0---0---0----0--0--0--0--0--0--0--0|
D|---0---0---0---0---0---0---0---0----0--0--0--0--0--0--0--0|
A|---0---0---0---0---0---0---0---0----0--0--0--0--0--0--0--0|
D|---12--12--12--12--11--11--11--11---5--5--5--5--4--4--4--4|
A|---9---9---9---9---9---9---9---9----5--5--5--5--5--5--5--5|
B|---0---0---0---0---0---0---0---0----0--0--0--0--0--0--0--0|   3x

E|---0---0---0---0---0---0---0---0----0--0--0--0--0--0--0--0|
D|---0---0---0---0---0---0---0---0----0--0--0--0--0--0--0--0|
A|---0---0---0---0---0---0---0---0----0--0--0--0--0--0--0--0|
D|---12--12--12--12--11--11--11--11---5--5--5--5--7--7--9--9|
A|---9---9---9---9---9---9---9---9----5--5--5--5--7--7--9--9|
B|---0---0---0---0---0---0---0---0----0--0--0--0--0--0--0--0|   1x

E|---0---0---0---0---0---0---0---0----0--0--0--0--0--0--0--0|
D|---0---0---0---0---0---0---0---0----0--0--0--0--0--0--0--0|
A|---0---0---0---0---0---0---0---0----0--0--0--0--0--0--0--0|
D|---12--12--12--12--11--11--11--11---5--5--5--5--4--4--4--4|
A|---9---9---9---9---9---9---9---9----5--5--5--5--5--5--5--5|
B|---0---0---0---0---0---0---0---0----0--0--0--0--0--0--0--0|   3x

E|---0---0---0---0---0---0---0---0----0--0--0--0--0--0--0--0|
D|---0---0---0---0---0---0---0---0----0--0--0--0--0--0--0--0|
A|---0---0---0---0---0---0---0---0----0--0--0--0--0--0--0--0|
D|---12--12--12--12--11--11--11--11---5--5--5--5--5--5--5--5|
A|---9---9---9---9---9---9---9---9----5--5--5--5--5--5--5--5|
B|---0---0---0---0---0---0---0---0----0--0--0--0--0--0--0--0|   4x

Outro:
E|---0---0---0---0---0---0---0-|
D|---0---0---0---0---0---0---0-|
A|---0---0---0---0---0---0---0-|
D|---0---0---0---0---0---0---0-|
A|---X---X---X-------X---X---X-|
B|---0---2---3-------0---10--8-|

If you havn't figure out the electric guitar solo yet, here 
it is. Keep in mind that this solo can be played very differntly. 
And it changes from time to time when GGD has live gigs.
Anyway, here is my tab of it. I tabbed it with an original 
tuning on the guitar. Listen to the song and slide between 
the tones. Hopefully you'll figure it out. enjoy


Electric Guitar Solo: Standard Tuning
E|----------------------------------------------------|
B|------------------------------------------12/12/12--|
G|--2/7--7/6--2/7--9/11--2/7--11/6--2/4--4/-----------|
D|----------------------------------------------------|
A|----------------------------------------------------|
E|----------------------------------------------------|


E|------------------------------------------------------------|
B|-------------10--14--14/15/14----------14-14-14-14-14-14-14-|
G|--2/7--9/11--------------------14--11--------------14-14-14-|
D|------------------------------------------------------------|
A|------------------------------------------------------------|
E|------------------------------------------------------------|

Comments