Goo Goo Dolls - Iris Chords & Tabs

 

Iris Chords & Tabs

Goo Goo Dolls Chords & Tabs

Version: 5 Type: Bass Tab 0 ratings
1 star 2 stars 3 stars 4 stars 5 stars
comments

Iris Bass Tab

song: Iris
artist: Goo Goo dolls
tabbed by: Mark Anthony Gruspe
email: mgruspe@peoplesupport.com
       kramy_xxiii@yahoo.com

G|--------------------------------------|
D|--------------------------------------|
A|--2--4--4-5-----------2--4-4-5--------|
D|------------5--4--0-------------5--0--|

verse1:
G|--------------------------------------|
D|--------------------------------------|
A|---------5--7------------2--0---------|
D|---------------5----------------5-----|
and i giv up.......coz i know....smhw

G|--------------------------------------|
D|--------------------------------------|
A|---------5--7------------2--0---------|
D|---------------5----------------5-----|
ur d closest.......and i dnt....ryt nw

G|--------------------------------------|
D|--------------------------------------|
A|---------5--7------------2---0--------|
D|---------------5----------------5-----|
......and all...momnt..and all...lyf

G|--------------------------------------|
D|--------------------------------------|
A|---5------7------------2---0----------|
D|-----------------5----------------5---|
  sooner..later..over...dnt.......name.  

chorus:

           r~~~~~~~~  r~~~~~~  r~~~~~
G|-----------------------------------|
D|-----------------------------------|
A|---------2----------0--------------|
D|-----------------------------5-----|
   and i dont wnt d world 2 c me

          r~~~~~~    r~~~~~~  r~~~~~
G|-----------------------------------|
D|-----------------------------------|
A|---------2----------00-------------|
D|-----------------------------5-55--|
   coz i dnt thnk dt they undrstnd

          r~~~~~~~~  r~~~~~~  r~~~~
G|---------------------------------------|
D|---------------------------------------|
A|---------2--------0-----0--------------|
D|----------------------------5-55---535-|
   wen everythins made to b broken

          r~~~~~~~~  r~~~~~~  r~~~~~
G|---------------------------------------|
D|---------------------------------------|
A|---------2----2------------------------|
D|--------------------0---0-----5--55-535|
    i jst want u to know who i am

interlude:

G|------------------------------------------|
D|------------------------------------------|
A|--2--24--4-5-------------2--24-4-5--------|
D|-------------5--4--540-------------5--0---|

verse2:

G|------------------------------------------|
D|------------------------------------------|
A|-----------------------2------0-----------|
D|----2-----0-------5--5----------------5--5|
  u cant..tears..cmin...mmnt...truth...eyes.  

G|--------------------------------------------|
D|--------------------------------------------|
A|---5------7--------------2--2---0-----------|
D|-----------------5--5-----------------5--55-|
  evrytin..feels..movies..bleed..knw...alive.  

chorus:

           r~~~~~~~~  r~~~~~~  r~~~~~
G|-----------------------------------|
D|-----------------------------------|
A|---------2----------0--------------|
D|-----------------------------5-----|
   and i dont wnt d world 2 c me

          r~~~~~~    r~~~~~~  r~~~~~
G|-----------------------------------|
D|-----------------------------------|
A|---------2----------00-------------|
D|-----------------------------5-55--|
   coz i dnt thnk dt they undrstnd

          r~~~~~~~~  r~~~~~~  r~~~~
G|---------------------------------------|
D|---------------------------------------|
A|---------2--------0-----0--------------|
D|----------------------------5-55---535-|
   wen everythins made to b broken

          r~~~~~~~~  r~~~~~~  r~~~~~
G|---------------------------------------|
D|---------------------------------------|
A|---------2----2------------------------|
D|--------------------0---0-----5--55-535|
    i jst want u to know who i am

interlude:

G|------------------------------------------|
D|------------------------------------------|
A|--222--444---555----------222--000--------|
D|-------------------(535)------------555---|

adlib:
[ Tab from: http://www.guitartabs.cc/tabs/g/goo_goo_dolls/iris_btab_ver_5.html ]
G|----------------------------------------------------|
D|----------------------------------------------------|
A|--444-555-45---------------444-555-45---------------|
D|-------------555--444-540-------------555-444-540---|

G|--------------------------------------|
D|--------------------------------------|
A|--444-555-45---------------444-555-45-|
D|-------------555--444-540-------------|

G|------------------------------------------------------|
D|------------------------------------------------------|
A|------------------------------------------------------|
D|-5-5555-54-4444-45-5555-5/9-9999-\5-5555-54444-5/99999|

G|------------------------------------------------------|
D|------------------------------------------------------|
A|------------------------------------------------------|
D|-99-10-10-12-12-14-14-12-109\5-5555-54-4444-5/9999-99-|
                              r~~~~~
G|------------------------------------------------------|
D|------------------------------------------------------|
A|------------------------------------------------------|
D|-99-10-10-12-12-14-14-12-10-9-------------------------|

pause

interlude

G|--------------------|
D|--------------------|
A|--2--4---5----------|
D|-------------5--0---|

chorus:

           r~~~~~~~~  r~~~~~~  r~~~~~
G|-----------------------------------|
D|-----------------------------------|
A|---------2----------0--------------|
D|-----------------------------5--55-|
   and i dont wnt d world 2 c me

          r~~~~~~    r~~~~~~  r~~~~~
G|-----------------------------------|
D|-----------------------------------|
A|---------2----------00-------------|
D|-----------------------------5-55--|
   coz i dnt thnk dt they undrstnd

          r~~~~~~~~  r~~~~~~  r~~~~
G|---------------------------------------|
D|---------------------------------------|
A|---------2--------0-----0--------------|
D|----------------------------5-55---535-|
   wen everythins made to b broken

          r~~~~~~~~  r~~~~~~  r~~~~~
G|---------------------------------------|
D|---------------------------------------|
A|---------2----2------------------------|
D|--------------------0---0-----5--55-535|
    i jst want u to know who i am

G|-----------------------|
D|-----------------------|
A|-----------------------|
D|--55555-55555-55555-535|

           r~~~~~~~~  r~~~~~~  r~~~~~
G|-----------------------------------|
D|-----------------------------------|
A|---------2----------0--------------|
D|-----------------------------5--55-|
   and i dont wnt d world 2 c me

          r~~~~~~    r~~~~~~  r~~~~~
G|-----------------------------------|
D|-----------------------------------|
A|---------2----------00-------------|
D|-----------------------------5-55--|
   coz i dnt thnk dt they undrstnd

          r~~~~~~~~  r~~~~~~  r~~~~
G|---------------------------------------|
D|---------------------------------------|
A|---------2--------0-----0--------------|
D|----------------------------5-55---535-|
   wen everythins made to b broken

          r~~~~~~~~  r~~~~~~  r~~~~~
G|---------------------------------------|
D|---------------------------------------|
A|---------2----2------------------------|
D|--------------------0---0-----5--55-535|
    i jst want u to know who i am...

          r~~~~~~~~  r~~~~~~  r~~~~~
G|---------------------------------------|
D|---------------------------------------|
A|---------2----2------------------------|
D|--------------------0---0-----5--55-535|
    i jst want u to know who i am...

          r~~~~~~~~  r~~~~~~  r~~~~~
G|---------------------------------------|
D|---------------------------------------|
A|---------2-----------------------------|
D|--------------------0---------5--------|
    i jst want u to know who i am...

*please dont copy and post this tab as yours. have some respect*
if u have comments or suggestions just email me kramy_xxiii@yahoo.com
*wag nio pong kopyahin tpos i-post it0ng tab n i2 n kunwari kyo ang gumawa*
if u have comments or suggestions just email me kramy_xxiii@yahoo.com
add me on friendster- kramy_xxiii@yahoo.com =p
..

ilove you somuch bhabe!
ur d only one 4 me.
i miss you so much.....
=(
Comments