Goo Goo Dolls - Iris Chords & Tabs

 

Iris Chords & Tabs

Goo Goo Dolls Chords & Tabs

Version: 3 Type: Bass Tab 0 ratings
1 star 2 stars 3 stars 4 stars 5 stars
comments

Iris Bass Tab

Goo Goo Dolls - Iris

Tabbed by: devil_will_ride

Normal Tuning.

Verse 1

G------------------------------------------------------|
D-0--2-------------------------------------------------|
A----------2--0----------------------------------------|
E-------3--------3-repeat x 4 then:--3-333-3-333-------|

Chorus 1

G------------------------------------------------------|
D------------------------------------------------------|
A-2-222-0-000------------------------------------------|
E-------------3-333-3-333-repeat x 4 then as below:----|


G------------------------------------------------------|
D------------------------------------------------------|
A-2--4--5----------54---------2--4--5------------------|
E----------3---------44----------------3---------------|

Verse 2

G------------------------------------------------------|
D-0--2-------------------------------------------------|
A----------2--0----------------------------------------|
E-------3--------3-repeat x 4--------------------------|

Chorus 2

G------------------------------------------------------|
D------------------------------------------------------|
A-2-222-0-000------------------------------------------|
E-------------3-333-3-333-repeat x 4 then as below:----|

[ Tab from: http://www.guitartabs.cc/tabs/g/goo_goo_dolls/iris_btab_ver_3.html ]
G------------------------------------------------------|
D------------------------------------------------------|
A-2222-4444-5555-5555--2222----------------------------|
E---------------------------5555-3333-repeat x 2-------|

Bridge

G--------------------------------------------------------|
D--------------------------------------------------------|
A-2222*4444*-4-5-----------------------------------------|
E----------------333333333333-repeat x 3 then as below:--|


G------------------------------------------------------|
D------------------------------------------------------|
A-2222*4444*-4-5---------------------------------------|
E---------------and into the guitar solo as below:-----|

Guitar Solo

G------------------------------------------------------|
D------------------------------------------------------|
A-222222222222-----------------------------------------|
E-------------333333333333-repeat x 4 then as below:---|


G------------------------------------------------------|
D------------------------------------------------------|
A-222222222222-2222-4444-------------------------------|
E------------------------5555-55-33--------------------|

Chorus 3


G-------------------------------------------------------|
D-------------------------------------------------------|
A-2-222-0-000-------------------2-222-0-000-------------|
E--------------3333333333333333-------------3-333-3-333-|

Outro

G------------------------------------------------------|
D------------------------------------------------------|
A-0--2----2--0-----------------------------------------|
E------3--------3-repeat to fade...--------------------|
Comments