Goo Goo Dolls - Iris Acoustic Version Chords & Tabs

 

Iris Acoustic Version Chords & Tabs

Goo Goo Dolls Chords & Tabs

Version: 1 Type: Tab 1 rating
1 star 2 stars 3 stars 4 stars 5 stars
comments

Iris Acoustic Version Tab

   
Artist    : Goo Goo Dolls
song      : Iris (acoustic version)
tabbed by : Christian Strowitzki
tuning    : double dropped d  ( d A d G B d )

I couldn't tab the bridge correctly, because John tunes his guitar to B D D D D D.
As I tuned mine to double dropped D, I had to take the octaves of some of the notes
he plays.


intro  2x
--------------------------------------------------------------
---------------------------------3-3--3-3-3-3--3-3-3-3-3-3----
----7--7-7-7-7-6--6--6-6/7-7-7---x-x--x-x-x-x--x-x-x-x-x-x----
----0--0-0-0-0-0--0--0-0---0-0---0-0--5-5-5-4--4-4-4-5-4-x----
----x--x-x-x-x-x--x--x-x---x-x---x-x--x-x-x-x--x-x-x-x-x-5----
----9--9-9-9-9-9--9--9-9---9-9---5-5--5-5-5-5--5-5-5-5-5-5----

verse
------0-0-0-0----0-0-0-0----0-0-0-0----0-0-0-0----
------3-3-3-3----3-3-3-3----3-3-3-3----3-3-3-3----
------x-x-x-x----x-x-x-x----x-x-x-x----x-x-x-x----
------0-0-0-0----0-0-0-0----0-0-0-0----0-0-0-0----
--------------------------------------------------
----0----------2----------5----------5------------

------0-0-0-0----0-0-0-0----0-0-0-0----0-0-0-0----
------x-x-x-x----x-x-x-x----x-x-x-x----3-3-3-3----
------7-7-7-7----7-7-7-7----7-7-7-7----x-x-x-x----
------0-0-0-0----0-0-0-0----0-0-0-0----0-0-0-0----
--------------------------------------------------
----9----------7----------5----------5------------

chorus
------0-0-0-0----0-0-0-0----0-0-0-0----0-0-0-0----
------x-x-x-x----x-x-x-x----x-x-x-x----3-3-3-3----
------7-7-7-7----7-7-7-7----7-7-7-7----x-x-x-x----
------0-0-0-0----0-0-0-0----0-0-0-0----0-0-0-0----
--------------------------------------------------
----9----------7----------5----------5------------

------0-0-0-0----0-0-0-0----0-0-0-0----0-0-0-0----
------3-3-3-3----x-x-x-x----3-3-3-3----3-3-3-3----
------x-x-x-x----7-7-7-7----x-x-x-x----x-x-x-x----
------0-0-0-0----0-0-0-0----0-0-0-0----0-0-0-0----
--------------------------------------------------
----0----------7----------5----------5------------

interlude  2x
--------------------------------------------------------------
---------------------------------3-3--3-3-3-3--3-3-3-3-3-3----
----7--7-7-7-7-6--6--6-6/7-7-7---x-x--x-x-x-x--x-x-x-x-x-x----
----0--0-0-0-0-0--0--0-0---0-0---0-0--5-5-5-4--4-4-4-5-4-x----
----x--x-x-x-x-x--x--x-x---x-x---x-x--x-x-x-x--x-x-x-x-x-5----
----9--9-9-9-9-9--9--9-9---9-9---5-5--5-5-5-5--5-5-5-5-5-5----

bridge
--------------------------------------------------------------
---------------------------------3-3--3-3-3-3--3-3-3-3-3-3----
----7--7-7-7-7-6--6--6-6/7-7-7---x-x--x-x-x-x--x-x-x-x-x-x----
----0--0-0-0-0-0--0--0-0---0-0---0-0--5-5-5-4--4-4-4-5-4-x----
----x--x-x-x-x-x--x--x-x---x-x---x-x--x-x-x-x--x-x-x-x-x-5----
----9--9-9-9-9-9--9--9-9---9-9---5-5--5-5-5-5--5-5-5-5-5-5----
[ Tab from: http://www.guitartabs.cc/tabs/g/goo_goo_dolls/iris_acoustic_version_tab.html ]
------------------------------------0---0-----0--0-0----
------------------------------------3---3-----x--x-3----
----7--7-7-7-7-6--6--6-6/7-7-7------x---x-----7--7-x----
----0--0-0-0-0-0--0--0-0---0-0----------------0--0-0----
----x--x-x-x-x-x--x--x-x---x-x----2---4---5---7--9-5----
----9--9-9-9-9-9--9--9-9---9-9---------------------------


-----0---0--0---0--0--0----         ----x--x-7--9-7-7----             --0--
----xx--xx-10--12-10-10----         ----x--x-x--x-x-x----             --x--
----xx--xx-xx--xx-xx-xx---- 3x  or  ----7--7-7--7-7-7---- 3x then     --7--
----12--12-12--12-12-12----         ----0--0-0--0-0-0---- play this   --0--
----xx--xx-xx--xx-xx-xx----         ----5--5-5--5-5-5---- chord for   --x--
----12--12-12--12-12-12----         --------------------- a while     --9--


-----0---0--0---0--0--0----         ----x--x-7--9-7-7----
----xx--xx-10--12-10-10----         ----x--x-x--x-x-x----
----xx--xx-xx--xx-xx-xx---- 2x  or  ----7--7-7--7-7-7---- 2x then
----12--12-12--12-12-12----         ----0--0-0--0-0-0----
----xx--xx-xx--xx-xx-xx----         ----5--5-5--5-5-5----
----12--12-12--12-12-12----         ---------------------

----0--0-0-0--0-0-0-0-0---0-0-0-0----0-0-0-0-0-0-0-----------
----x--x-x-x--x-x-x-x-x---x-x-x-x----x-x-x-x-3-3-3-3---------
----7--7-7-7--7-7-7-7-7---7-7-7-7----7-7-7-7-x-x-x-x---------
----0--0-0-0--0-0-0-0-0---0-0-0-0----0---0---0---0---0-------
----x--------------------------------x---x---x---x---x--x----
----9--------------------------------9---7---5---4---2--0----

------0-0-0-0----0-0-0-0----0-0-0-0----0-0-0-0----
------3-3-3-3----3-3-3-3----3-3-3-3----3-3-3-3----
------x-x-x-x----x-x-x-x----x-x-x-x----x-x-x-x----
--------------------------------------------------
----2----------4----------5----------5------------
--------------------------------------------------

------0-0-0-0----0-0-0-0-------
------x-x-x-x----x-x-x-x-------
------7-7-7-7----7-7-7-7-------
--------------------------0----
--------------------------x----
----9----------7----------5----

outro
------0-0-0-0----0-0-0-0----0-0-0-0----0-0-0-0----
------3-3-3-3----3-3-3-3----3-3-3-3----3-3-3-3----
------x-x-x-x----x-x-x-x----x-x-x-x----x-x-x-x----
--------------------------------------------------
----2----------4----------5----------5------------
--------------------------------------------------

------0-0-0-0----0-0-0-0----0-0-0-0----0-0-0-0----
------x-x-x-x----x-x-x-x----3-3-3-3----3-3-3-3----
------7-7-7-7----7-7-7-7----x-x-x-x----x-x-x-x----
--------------------------------------------------
--------------------------------------------------
----9----------7----------5----------5------------

------0-0-0-0----0-0-0-0----0-0-0-0----0-0-0-0----
------3-3-3-3----3-3-3-3----3-3-3-3----3-3-3-3----
------x-x-x-x----x-x-x-x----x-x-x-x----x-x-x-x----
--------------------------------------------------
----2----------4----------5----------5------------
--------------------------------------------------

------0-0-0-0----0-0-0-0-------
------x-x-x-x----x-x-x-x-------
------7-7-7-7----7-7-7-7-------
--------------------------0----
--------------------------x----
----9----------7----------5----
Comments