Goo Goo Dolls - I Dont Want To Know Chords & Tabs

 

I Dont Want To Know Chords & Tabs

Goo Goo Dolls Chords & Tabs

Version: 1 Type: Bass Tab 0 ratings
1 star 2 stars 3 stars 4 stars 5 stars
comments

I Dont Want To Know Bass Tab

   
Goo goo dolls - I don't want to know

Intro - Guitar only

Chorus 1 & verse
G |-------------------------------|
D |---------0-0-0-0---------------|
A |-----------------3-3-3-3-3-3-3-|
E |-0-0-0-0-----------------------|

Bridge
G |-------------------------------------------------------------------------------------------|
D |---------------0-0---------------0-0---------0-0-0-0-----------------------------0-0-0-0-0-|
A |---------3-3-3-------------3-3-3---------------------3-3-3-3-0-0-0-0-0-0-2-2-2-2-----------|
E |-3-3-3-3-----------3-3-3-3-----------0-0-0-0-----------------------------------------------|


Chorus 2
G |--------------------------------------------------------------------|
D |-------0-0--------------------0-0---------------------0-0-----------|
A |-----------3-3-3-3-3-3-3----------3-3-3-3-3-3-3-----------3-3-3-3-3-|
E |-3-3-3-------------------0-0-0------------------3-3-3---------------|

Solo
[ Tab from: http://www.guitartabs.cc/tabs/g/goo_goo_dolls/i_dont_want_to_know_btab.html ]
G |-----------------------------------------------------------------------------|
D |-----------------2-2-2-2-2-2-2-2-2-------------------------2-2-2-2-2-2-2-2-2-|
A |-3-3-3-3-3-3-3-3-------------------3-3-3-3-3-3-3-3-3-3-3-3-------------------|
E |-----------------------------------------------------------------------------|

G |-----------------------------------------------------------------------------|
D |-----------------------------------------------------------------------------|
A |-3-3-3-3-3-3-3-3-3-3-3-3-3-3-3-3-3-3-2-2-2-2-3-3-3-3-2-2-2-2-3-3-3-3-2-2-2-2-|
E |-----------------------------------------------------------------------------|

G |------------------------------------|
D |-------------------------0-0-0-0-2~-|
A |-0-0-0-0-2-2-2-2-3-3-3-3------------|
E |------------------------------------|



Song construction
Intro
Chorus1 x3
Verse x4
Bridge x1
Chorus2 x1
Verse x4
Bridge x1
Chorus2 x1
Solo
Bridge x1
Chorus1 x7

------------------------------------------------------------------
Tab made by Joakim Nordin (fjodor@mindless.com)
Note that the amount of notes during the solo isn't intended
to be an exact representation of the song, becous it's so similar
for a long time there, but if you listen to the song, you should be
able to feel when to make the changes.
As usual, I'm sure this has lots of misstakes in it. So if you
figure out my misstakes, please mail them to me.
Cheers!
------------------------------------------------------------------

Comments