Goo Goo Dolls - Here Is Gone Chords & Tabs

 

Here Is Gone Chords & Tabs

Goo Goo Dolls Chords & Tabs

Version: 8 Type: Tab 0 ratings
1 star 2 stars 3 stars 4 stars 5 stars
comments

Here Is Gone Tab

   
Artist: Goo Goo Dolls
Song:   Big Machine 
Album:  Gutterflower
Tabber: sheriffvalenti@hotmail.com

First off, thanks to Lance, (lance_mar@hotmail.com), for the correct tuning. I've 
amended the intro and a few other places and now it sounds exactly like the CD version.
This is a brillinat song......go get the album if you like it! Ok, peace...
 

Tuning

E upto F
B upto Db
G upto Ab
D down to Db
A down to Ab
E down to Db


Intro: - strum as necessary

                                            continue strumming
F-----0-0---0-0-0--0-0-0---0-0---0-0-0--0-0-0---|---0----0----
Db----0-0---0-0-0--0-0-0---0-0---0-0-0--0-0-0---|---0----0----
Ab----5/7---7-7-7--5-5-5---5/7---7-7-7--5-5-5---|---0----0----
Db----7-7---7-7-7--7-7-7---5-7---7-7-7--7-7-7---|---0----0----
Ab----------------------------------------------|---7----5----
Db----------------------------------------------|---7----5----




Verses:
[ Tab from: http://www.guitartabs.cc/tabs/g/goo_goo_dolls/here_is_gone_tab_ver_8.html ]
Repeat the intro during the verses




Pre-Chorus - strum as necessary

F ----0----0----0---|---0----0----0----0----
Db----0----0----0---|---0----0----0----0----
Ab----0----0----0---|---0----0----0----0----
Db----2----4----7---|---2----4----0----0----
Ab----2----2----5---|---2----2----7----5----
Db----2----x----x---|---2----x----7----5----



Chorus(es) - strum as necessary

F ----0----0----0----0---0----
Db----0----0----0----0---0----
Ab----0----0----0----0---0----
Db----7----7----4----0---0----
Ab----5----4----2----7---5----
Db-------------------7---5----

Bridge

F ----0----0----0----0---|---0----0----0--0----0----0----0----
Db----0----0----0----0---|---0----0----0--0----0----0----0----
Ab----4----0----0----0---|---4----0----0--0----0----0----0----
Db----4----0----7----7---|---4----0----7--7----0----0----0----
Ab----2----5----5----4---|---2----5----5--4----9----7----5----
Db---------5-------------|--------5------------9----7----5----


End on

F ----0-----
Db----0-----
Ab----0-----
Db----0-----
Ab----0-----
Db----0-----

Comments