Goo Goo Dolls - Here Is Gone Chords & Tabs

 

Here Is Gone Chords & Tabs

Goo Goo Dolls Chords & Tabs

Version: 7 Type: Tab 0 ratings
1 star 2 stars 3 stars 4 stars 5 stars
comments

Here Is Gone Tab

   
Song Title: Here Is Gone
Artist: Goo Goo Dolls
Album: Gutterflower
Tabbed by Lance (lance_mar@hotmail.com)

Tuning (low to high): Db Ab Db Ab Db F

I watched them play this on Leno. It should be pretty close to
what John Rzeznik actually plays. I didn't tab out every strum
(except for the first part of the intro), but you should be able
to figure it out by just looking at the chord shapes. Enjoy!

Intro and beginning of 2nd verse
F ----0----0-0-0--0-0-0---0----0-0-0--0-0-0---|---0----0----
Db----0----0-0-0--0-0-0---0----0-0-0--0-0-0---|---0----0----
Ab----5/7--7-7-7--5-5-5---5/7--7-7-7--5-5-5---|---0----0----
Db----0----0-0-0--0-0-0---0----0-0-0--0-0-0---|---x----0----
Ab----5/7--7-7-7--5-5-5---5/7--7-7-7--5-5-5---|---7----5----
Db--------------------------------------------|---7----5----
[ Tab from: http://www.guitartabs.cc/tabs/g/goo_goo_dolls/here_is_gone_tab_ver_7.html ]
Verse
F ----0----0----0----0----
Db----0----0----0----0----
Ab----0----0----0----0----
Db----x----x----x----0----
Ab----9---12----7----5----
Db----9---12----7----5----

Pre-Chorus
F ----0----0----0---|---0----0----0----0----
Db----0----0----0---|---0----0----0----0----
Ab----0----0----0---|---0----0----0----0----
Db----x----x----x---|---x----x----x----0----
Ab----2----9---12---|---2----9----7----5----
Db----2----9---12---|---2----9----7----5----

Chorus and Out-chorus
F ----0----0----0----0---0----
Db----0----0----0----0---0----
Ab----0----0----0----0---0----
Db----7----7----4----2---0----
Ab----5----4----2----0---5----
Db-------------------x---5----

Bridge
F ----0----0----0----0---|---0----0----0--0----0----0----0----
Db----0----0----0----0---|---0----0----0--0----0----0----0----
Ab----4----0----0----0---|---4----0----0--0----0----0----0----
Db----4----0----7----7---|---4----0----7--7----x----x----0----
Ab----2----5----5----4---|---2----5----5--4----9----7----5----
Db---------5-------------|--------5------------9----7----5----

End on
F ----0--------0----
Db----0--------0----
Ab----0---OR---0----
Db----0--------7----
Ab----0--------5----
Db----0-------------
Comments