Goo Goo Dolls - Here Is Gone Chords & Tabs

 

Here Is Gone Chords & Tabs

Goo Goo Dolls Chords & Tabs

Version: 5 Type: Tab 0 ratings
1 star 2 stars 3 stars 4 stars 5 stars
comments

Here Is Gone Tab

   
Artist: Goo Goo Dolls
Song: Here Is Gone
Album: Gutterflower
Tabbed by: Pagel (mulderhudsonzito@yahoo.com)
	http://www.nd.edu/~echerrst/hgip.html

probably not the exact tuning but it sounds right

Tuning (low to high): EbAbDbGbAbDb
   so basically everything down half a step and the
   1st and 2nd strings down another full step

Intro/Verse
     Bm          D           A           G
Db-|-0^2-22-00-|-0^2-22-00-|-0--00--00-|-0--00--00-|
Ab-|-0---00-00-|-0---00-00-|-0--00--00-|-0--00--00-|
Gb-|-2---22-22-|-2---22-22-|-2--22--22-|-x--xx--xx-|
Db-|-x---xx-xx-|-0---00-00-|-2--22--22-|-5--55--55-|
Ab-|-2---22-22-|-----------|-0--00--00-|-5--55--55-|
Eb-|-----------|-----------|-----------|-3--33--33-|

Pre-Chorus (I'm not the one who broke you....)
     Eadd4       Bm          D           D
Db-|-0---------|-0---------|-0---------|-0---------|
Ab-|-0---------|-0---------|-0---------|-0---------|
Gb-|-2---------|-4---------|-7---------|-7---------|
Db-|-2---------|-4---------|-7---------|-7---------|
Ab-|-2---------|-2---------|-5---------|-5---------|
Eb-|-0---------|-----------|-----------|-----------|

    (I thought I'd lost you somewhere....)
     Eadd4       Bm          A           G
Db-|-0---------|-0---------|-0---------|-0---------|
Ab-|-0---------|-0---------|-0---------|-0---------|
Gb-|-2---------|-4---------|-2---------|-x---------|
Db-|-2---------|-4---------|-2---------|-5---------|
Ab-|-2---------|-2---------|-0---------|-5---------|
Eb-|-0---------|-----------|-----------|-3---------|
[ Tab from: http://www.guitartabs.cc/tabs/g/goo_goo_dolls/here_is_gone_tab_ver_5.html ]
Chorus (I want to get free....)
     D           Aadd4?      Bm          A    G
Db-|-0---------|-0---------|-0---------|-0----0----|
Ab-|-0---------|-0---------|-0---------|-0----0----|
Gb-|-7---------|-7---------|-4---------|-2----x----|
Db-|-7---------|-7---------|-4---------|-2----5----|
Ab-|-5---------|-4---------|-2---------|-0----5----|
Eb-|-----------|-----------|-----------|------3----|

Bridge (And I don't need the fallout....)
 (This part could be a little off)
     B           G           D           A
Db-|-0---------|-0---------|-0---------|-0---------|
Ab-|-0---------|-0---------|-0---------|-0---------|
Gb-|-4---------|-x---------|-7---------|-2---------|
Db-|-4---------|-5---------|-7---------|-2---------|
Ab-|-2---------|-5---------|-5---------|-0---------|
Eb-|-----------|-3---------|-----------|-----------|

     B           G           D    A      B    A
Db-|-0---------|-0---------|-0----0----|-0----0----|
Ab-|-0---------|-0---------|-0----0----|-0----0----|
Gb-|-4---------|-x---------|-7----2----|-4----2----|
Db-|-4---------|-5---------|-7----2----|-4----2----|
Ab-|-2---------|-5---------|-5----0----|-2----0----|
Eb-|-----------|-3---------|-----------|-----------|

     G           G
Db-|-0---------|-0---------|
Ab-|-0---------|-0---------|
Gb-|-x---------|-x---------|
Db-|-5---------|-5---------|
Ab-|-5---------|-5---------|
Eb-|-3---------|-3---------|

The strumming isn't too hard to figure out.
A's will win the world series.
Email questions.
Thank you.
Comments