Goo Goo Dolls - Here Is Gone Chords & Tabs

 

Here Is Gone Chords & Tabs

Goo Goo Dolls Chords & Tabs

Version: 4 Type: Tab 0 ratings
1 star 2 stars 3 stars 4 stars 5 stars
comments

Here Is Gone Tab

INTRO + VERSE:
(strum)

-----------------------------------------------------
-----------------------------------------------------
6/--8-8-8-8\--6-6-6--6/--8-8-8-8\--6-6-6-------------
6/--8-8-8-8\--6-6-6--6/--8-8-8-8\--6-6-6-------------
4/--6-6-6-6\--4-4-4--4/--6-6-6-6\--4-4-4-------------
-----------------------------------------------------
[ Tab from: http://www.guitartabs.cc/tabs/g/goo_goo_dolls/here_is_gone_tab_ver_4.html ]
-----------------------------------------------------
-----------------------------------------------------
-----------------------------------------------------
6-666666666\--4-444444444----------------------------
6-666666666\--4-444444444----------------------------
4-444444444\--2-222222222----------------------------


PRECHORUS:

-----------------------------------------------------
-----------------------------------------------------
6666666666-------------------------------------------
6666666666--6666666666----4444444444444444444--------
4444444444--6666666666----4444444444444444444--------
------------4444444444----2222222222222222222--------

CHORUS:

----------------------------------------------------
----------------------------------------------------
6--6/-88888----6/-88888-----6/-88888----6/-88888----
6--6/-88888-6--6/-88888--4--6/-88888-6--6/-88888----
4--4/-66666-6--4/-66666--4--4/-66666-6--4/-66666----
------------4------------2-----------4--------------
Comments