Goo Goo Dolls - Here Is Gone Chords & Tabs

 

Here Is Gone Chords & Tabs

Goo Goo Dolls Chords & Tabs

Version: 2 Type: Tab 0 ratings
1 star 2 stars 3 stars 4 stars 5 stars
comments

Here Is Gone Tab

   
#----------------------------------PLEASE NOTE--------------------------------#
#This file is the author's own work and represents their interpretation of the#
#song. You may only use this file for private study, scholarship, or research.#
#-----------------------------------------------------------------------------#
#-- File created with Instab - http://www.pconline.com/~smcarey/instab.html --#
#-----------------------------------------------------------------------------#

Author/Artist: Goo Goo Dolls
Title: Here Is Gone
Album: Gutterflower
Transcribed by: Kris Kaniski
Email: Sole_Eulogy@hotmail.com

tuning: Db Ab Db Ab Db F

Just tune the lower one to the respected tones,
but watch yourself one the higher ones...they must be tuned up..
the 3rd, 2nd, And 1st strings should be tuned up.

--0-0-0-0-0-0-0-0-0-0-0-0-0-0--0--0-------------------------------------------
--0-0-0-0-0-0-0-0-0-0-0-0-0-0--0--0-------------------------------------------
--5/7-7-7\5-5-5-5/7-7-7\5-5-5--0--0-------------------------------------------
--7/9-9-9\7-7-7-7/9-9-9\7-7-7--0--0-------------------------------------------
--0-0-0-0-0-0-0-0-0-0-0-0-0-0--7--5-------------------------------------------
-------------------------------7--5-------------------------------------------
 Intro and verses                                                             
[ Tab from: http://www.guitartabs.cc/tabs/g/goo_goo_dolls/here_is_gone_tab_ver_2.html ]
------0---------0-0-----------------------------------------------------------
------0---------0-0-----------------------------------------------------------
--0-0-0----0-0--0-0-----------------------------------------------------------
--0-4-7----0-4--0-0-----------------------------------------------------------
--2-2-5----2-2--7-5-----------------------------------------------------------
--2-0------2----7-5-----------------------------------------------------------
 prechorus: Play the second one when he says"I thought i lost you somwhere... 

--0-0-0--0-0------------------------------------------------------------------
--0-0-0--0-0------------------------------------------------------------------
--0-0-0--0-0------------------------------------------------------------------
--7-7-4--0-0------------------------------------------------------------------
--5-4-2--7-5------------------------------------------------------------------
---------7-5------------------------------------------------------------------
 choruses                                                                     

-0--------0-------------------------------------------------------------------
-0----0---0--0----------------------------------------------------------------
-0----0---0--0----------------------------------------------------------------
-4----0---7--7----------------------------------------------------------------
-2----5---5--4----------------------------------------------------------------
------5-----------------------------------------------------------------------
 bridge           Simple song...questions on tuning, e-mail me.               

Comments