Goo Goo Dolls - Here Is Gone Chords & Tabs

 

Here Is Gone Chords & Tabs

Goo Goo Dolls Chords & Tabs

Version: 11 Type: Tab 0 ratings
1 star 2 stars 3 stars 4 stars 5 stars
comments

Here Is Gone Tab

   
-----------------------------------------------------------------------------
			     HERE IS GONE - Goo Goo Dolls
-----------------------------------------------------------------------------
Tabbed by: Jason
Email: jason_butler3@hotmail.com

Tuning:f,C#,G#,C#,G#,C#

INTRO: x2
 f|----0---0---0--0--0--0-0----0----0--0--0--0--0-0--0-0-0-0-0--0-0-0-0-0---|
C#|----0---0---0--0--0--0-0----0----0--0--0--0--0-0--0-0-0-0-0--0-0-0-0-0---|
G#|----0---0---0--0--0--0-0----0----0--0--0--0--0-0--0-0-0-0-0--0-0-0-0-0---|
C#|----0---0---0--0--0--0-0----0----0--0--0--0--0-0--0-0-0-0-0--0-0-0-0-0---|
G#|----9-/-12-12-12-12--9-9----9-/-12-12-12-12--9-9--7-7-7-7-7--5-5-5-5-5---|
C#|----9-/-12-12-12-12--9-9----9-/-12-12-12-12--9-9--7-7-7-7-7--5-5-5-5-5---|


VERSE:
 f|--0--------------------------------0---------------------------0---0-----|
C#|--0--------------------------------0---------------------------0---0-----|
G#|--0--------------------------------0---------------------------0---0-----|
C#|--0--------------------------------0---------------------------0---0-----|
G#|--9-------------------------------12---------------------------7---5-----|
C#|--9-------------------------------12---------------------------7---5-----|
    You and I got something but it's all and then it's nothing to me, yeah
     I got my defences when it       comes to your intentions for me, yeah
  we wake up in the breakdown of the things we never thought we'd be, yeah

[ Tab from: http://www.guitartabs.cc/tabs/g/goo_goo_dolls/here_is_gone_tab_ver_11.html ]
PRE-CHORUS:
 f|-0------------------------------0----------------------------0-----------|
C#|-0------------------------------0----------------------------0-----------|
G#|-0------------------------------0----------------------------0-----------|
C#|-0------------------------------0----------------------------0-----------|
G#|-2------------------------------9---------------------------12-(*)-------|
C#|-2------------------------------9---------------------------12-(*)-------|
     I'm not the one who broke you, i'm not the one you should fear 
     (* = 2nd time play open)
	 
 f|-0-------------------------------0----------------------0-------------0--|
C#|-0-------------------------------0----------------------0-------------0--|
G#|-0-------------------------------0----------------------0-------------0--|
C#|-0-------------------------------0----------------------0-------------0--|
G#|-2-------------------------------9----------------------7-------------5--|
C#|-2-------------------------------9----------------------7-------------5--|
     I thought i lost you somewhere, you were never really ever there at all
	  

CHORUS:
 f|---0-------------0--------------0---------0--------0---------------------|
C#|---0-------------0--------------0---------0--------0---------------------|
G#|---0-------------0--------------0---------0--------0---------------------|
C#|---7-------------7--------------4---------2--------0---------------------|
G#|---5-------------4--------------2---------0--------5---------------------|
C#|---0-------------0--------------0---------3--------5---------------------|
  And I want to get free, talk to me, i can  feel you falling
  And I wanted to   be, all you need,somehow here is  gone...


BRIDGE:
 f|-0-0-0---------0----------------------0-------------------0--------------|
C#|-0-0-0---------0----------------------0-------------------0--------------|
G#|-0-0-0---------0----------------------0-------------------0--------------|
C#|-4-4-4---------0----------------------7-------------------7--------------|
G#|-2-2-2---------5----------------------5-------------------4--------------|
C#|-0-0-0---------5----------------------0-------------------0--------------|
	  I don't need the fallout, from all the past that's in between us

 f|-0-0-0--------0---------------0--------0------------0---------0-------0--|
C#|-0-0-0--------0---------------0--------0------------0---------0-------0--|
G#|-0-0-0--------0---------------0--------0------------0---------0-------0--|
C#|-4-4-4--------0---------------7--------7------------4---------0-------0--|
G#|-2-2-2--------5---------------5--------4------------2---------7-------5--|
C#|-0-0-0--------5---------------0--------0------------0---------7-------5--|
         I'm not holding on, and all your lies weren't enough to keep me here
Comments