Goo Goo Dolls - Here Is Gone Chords & Tabs

 

Here Is Gone Chords & Tabs

Goo Goo Dolls Chords & Tabs

Version: 2 Type: Bass Tab 0 ratings
1 star 2 stars 3 stars 4 stars 5 stars
comments

Here Is Gone Bass Tab

Artist: Goo Goo Dolls
Song: Here Is Gone
Album: Gutterflower
Tabbed by: Andrew (amalet003@cs.com)

I don't know if this is right, comment if you like.
Tuned: Down One-Half Step.

Intro x2
Gb-|-----------|-----------|-----------|-----------|
Db-|-----------|-----------|-----------|-----------|
Ab-|-2---------|-5---------|-----------|-----------|
Eb-|-----------|-----------|-5---------|-3---------|

Verse x3
Gb-|-----------|-----------|-----------|-----------|
Db-|-----------|-----------|-----------|-----------|
Ab-|-2---------|-5---------|-----------|-----------|
Eb-|-----------|-----------|-5---------|-3---------|

Pre-Chorus  ("I'm not the one who broke...")
Gb-|-----------|-----------|-----------|-----------|
Db-|-----------|-----------|-----------|-----------|
Ab-|-----------|-2-2-2-2-2-|-5-5-5-5-5-|-5-5-5-5-5-|
Eb-|-0-0-0-0-0-|-----------|-----------|-----------|
[ Tab from: http://www.guitartabs.cc/tabs/g/goo_goo_dolls/here_is_gone_btab_ver_2.html ]
            ("I thought I lost you...")
Gb-|-----------|-----------|-----------|-----------|
Db-|-----------|-----------|-----------|-----------|
Ab-|-----------|-2-2-2-2-2-|-----------|-----------|
Eb-|-0-0-0-0-0-|-----------|-5-5-5-5-5-|-3-3-3-3-3-|

Chorus x2
Gb-|---------|---------|-------------------|
Db-|---------|---------|-------------------|
Ab-|-5-5-5-5-|-4-4-4-4-|-2-2-2-------------|
Eb-|---------|---------|--------5-5--3-3-3-|

Bridge   ("And I don't need the fallout...")
Gb-|---------|---------|---------|---------|
Db-|---------|---------|---------|---------|
Ab-|-2-2-2-2-|---------|-5-5-5-5-|---------|
Eb-|---------|-3-3-3-3-|---------|-5-5-5-5-|

         ("And I'm not holding on........me here.")
Gb-|---------|---------|-----------------------------------|
Db-|---------|---------|-----------------------------------|
Ab-|-2-2-2-2-|---------|-5-5-----2-2-----------------------|
Eb-|---------|-3-3-3-3-|-----5-5-----5-5--3-3-3-3-3-3-3-3--|
Comments