Goo Goo Dolls - Here Is Gone Chords & Tabs

 

Here Is Gone Chords & Tabs

Goo Goo Dolls Chords & Tabs

Version: 1 Type: Bass Tab 0 ratings
1 star 2 stars 3 stars 4 stars 5 stars
comments

Here Is Gone Bass Tab

 Goo Goo Dolls "Here is Gone"

 The number of hits may be off,
 But it's correct.

 Verse: (Repeat)
G|--------------------------|
D|--------------------------|
A|-------4----4h6-----------|
E|-6-----------------4----2-|
 
 Pre-Chorus:
G|---------------------------------------------|
D|---------------------------------------------|
A|-6-6-6-6--6------------4-4-4-4--4-4-4-4-4--4-|
E|------------6-6-6-6--6-----------------------|

G|---------------------------------------------|
D|---------------------------------------------|
A|-6-6-6-6--6----------------------------------|
E|------------6-6-6-6--6-4-4-4-4--4-2-2-2-2--2-|
[ Tab from: http://www.guitartabs.cc/tabs/g/goo_goo_dolls/here_is_gone_btab.html ]
 Chorus & Outro: (Repeat x2 except for Outro)
G|----------------------------------------------|
D|----------------------------------------------|
A|-4-4-4-4--4-3-3-3-3--3------------------------|
E|-----------------------6-6-6-6--6-4-4-4-2-2-2-|

 Bridge:
G|-----------------------------------------------------------|
D|-----------------------------------------------------------|
A|----------3-4------------------4-4-4-4-4-4-4-3-3-3-3-3-4-6-|
E|-6-6-6-6-6---2-2-2-2-2-2-2-2/4-----------------------------|

G|-----------------------------------------------------------|
D|-----------------------------------------------------------|
A|----------3-4----------------4--3--------------------------|
E|-6-6-6-6-6---2-2-2-2-2-2-2-2-------6--4--2-2-2-2-2-2-2-2-2-|

 Tab'd by Nyte: Nytethorn@aol.com
Comments