Goo Goo Dolls - Hate This Place Chords & Tabs

 

Hate This Place Chords & Tabs

Goo Goo Dolls Chords & Tabs

Version: 1 Type: Tab 0 ratings
1 star 2 stars 3 stars 4 stars 5 stars
comments

Hate This Place Tab

   
Tuning: STANDARD

Key:

/ = Slide Up
\ = Slide Down
b = Bend Up
h = Hammer On
p = Pull Off
r = Release Bend
x = Block Out

Intro x2:
(Guitar 1)
E|-------------------------------|
B|-------------------------------|
G|-------------------------------|
D|---------2h4--2-1--------------|
A|2b4p2-------------2b4\2--------|
E|------------------------0-2b3r0|

(Guitar 2)
E|x-x-x-x-x-x-x-x-x-x-x-x-x-x-x-x-x-x-x-x-x-x-x-x|
B|x-x-x-x-x-x-x-x-x-x-x-x-x-x-x-x-x-x-x-x-x-x-x-x|
G|9-9-9-9-9-9-4-4-4-4-4-4-2-2-2-2-2-2-1-1-1-1-1-1|
D|9-9-9-9-9-9-4-4-4-4-4-4-2-2-2-2-2-2-2-2-2-2-2-2|
A|7-7-7-7-7-7-2-2-2-2-2-2-2-2-2-2-2-2-2-2-2-2-2-2|
E|-----------------------------------------------|

Verse x4:
E|x-x-x-x-x-x-x-x-x-x-x-x-x-x-x-x-x-x-x-x-x-x-x-x|
B|x-x-x-x-x-x-x-x-x-x-x-x-x-x-x-x-x-x-x-x-x-x-x-x|
G|9-9-9-9-9-9-4-4-4-4-4-4-2-2-2-2-2-2-1-1-1-1-1-1|
D|9-9-9-9-9-9-4-4-4-4-4-4-2-2-2-2-2-2-2-2-2-2-2-2|
A|7-7-7-7-7-7-2-2-2-2-2-2-2-2-2-2-2-2-2-2-2-2-2-2|
E|-----------------------------------------------|

Bridge x3:                   Bridge End x1:
E|x--x-x-x-x-x--x--x-x-x-x-x|x-x-x-x-x-x-x-x-x-x-x-x|
B|x--x-x-x-x-x--x--x-x-x-x-x|x-x-x-x-x-x-x-x-x-x-x-x|
G|x--x-x-x-x-x--x--x-x-x-x-x|x-x-x-x-x-x-9-9-9-9-9-9|
D|6--6-6-6-6-6--7--7-7-7-7-7|9-9-9-9-9-9-9-9-9-9-9-9|
A|6--6/7/6/7/6--7--7/9/7/9/7|9-9-9-9-9-9-7-7-7-7-7-7|
E|4--4-4-4-4-4--5--5-5-5-5-5|7-7-7-7-7-7------------|

Chorus x2:
E|x-x-x-x-x-x-x-x-x-x-x-x-x-x-x-x-x-x-x-x-x-x-x-x-x-x-x-x-x-x-x-x|
B|x-x-x-x-x-x-x-x-x-x-x-x-x-x-x-x-x-x-x-x-x-x-x-x-x-x-x-x-x-x-x-x|
G|7-7-7-7-7-7-7-7-4-4-4-4-4-4-4-4-2-2-2-2-2-2-2-2-1-1-1-1-1-1-1-1|
D|7-7-7-7-7-7-7-7-4-4-4-4-4-4-4-4-2-2-2-2-2-2-2-2-2-2-2-2-2-2-2-2|
A|9-9-9-9-9-9-9-9-2-2-2-2-2-2-2-2-----------------2-2-2-2-2-2-2-2|
E|---------------------------------------------------------------|
[ Tab from: http://www.guitartabs.cc/tabs/g/goo_goo_dolls/hate_this_place_tab.html ]
Verse x4:
E|x-x-x-x-x-x-x-x-x-x-x-x-x-x-x-x-x-x-x-x-x-x-x-x|
B|x-x-x-x-x-x-x-x-x-x-x-x-x-x-x-x-x-x-x-x-x-x-x-x|
G|9-9-9-9-9-9-4-4-4-4-4-4-2-2-2-2-2-2-1-1-1-1-1-1|
D|9-9-9-9-9-9-4-4-4-4-4-4-2-2-2-2-2-2-2-2-2-2-2-2|
A|7-7-7-7-7-7-2-2-2-2-2-2-2-2-2-2-2-2-2-2-2-2-2-2|
E|-----------------------------------------------|

Bridge x3:                   Bridge End x1:
E|x--x-x-x-x-x--x--x-x-x-x-x|x-x-x-x-x-x-x-x-x-x-x-x|
B|x--x-x-x-x-x--x--x-x-x-x-x|x-x-x-x-x-x-x-x-x-x-x-x|
G|x--x-x-x-x-x--x--x-x-x-x-x|x-x-x-x-x-x-9-9-9-9-9-9|
D|6--6-6-6-6-6--7--7-7-7-7-7|9-9-9-9-9-9-9-9-9-9-9-9|
A|6--6/7/6/7/6--7--7/9/7/9/7|9-9-9-9-9-9-7-7-7-7-7-7|
E|4--4-4-4-4-4--5--5-5-5-5-5|7-7-7-7-7-7------------|

Chorus x2:
E|x-x-x-x-x-x-x-x-x-x-x-x-x-x-x-x-x-x-x-x-x-x-x-x-x-x-x-x-x-x-x-x|
B|x-x-x-x-x-x-x-x-x-x-x-x-x-x-x-x-x-x-x-x-x-x-x-x-x-x-x-x-x-x-x-x|
G|7-7-7-7-7-7-7-7-4-4-4-4-4-4-4-4-2-2-2-2-2-2-2-2-1-1-1-1-1-1-1-1|
D|7-7-7-7-7-7-7-7-4-4-4-4-4-4-4-4-2-2-2-2-2-2-2-2-2-2-2-2-2-2-2-2|
A|9-9-9-9-9-9-9-9-2-2-2-2-2-2-2-2-----------------2-2-2-2-2-2-2-2|
E|---------------------------------------------------------------|

Interlude x3:
E|x-x-x-x-x-x-x-x-x-x-x-x-x-x-x-x-x-x-x-x-x-x-x-x-x-x-x-x|
B|x-x-x-x-x-x-x-x-x-x-x-x-x-x-x-x-x-x-x-x-x-x-x-x-x-x-x-x|
G|x-x-x-x-x-x-x-x-x-x-x-x-x-x-1-1-1-1-1-1-1-1-1-1-1-1-1-1|
D|7-7-7-7-7-7-7-7-7-7-7-7-7-7-2-2-2-2-2-2-2-2-2-2-2-2-2-2|
A|7-7-7-7-7-7-7-7-7-7-7-7-7-7-2-2-2-2-2-2-2-2-2-2-2-2-2-2|
E|5-5-5-5-5-5-5-5-5-5-5-5-5-5----------------------------|

Interlude End:
E|x-x-x-x-x-x-x-x-x-x-x-x-x-x-x-----x-----x-----|
B|x-x-x-x-x-x-x-x-x-x-x-x-x-x-x-----x-----x-----|
G|x-x-x-x-x-x-x-x-x-x-x-x-x-x-9-----4-----2-----|
D|7-7-7-7-7-7-7-7-7-7-7-7-7-7-9-----4-----2-----|
A|7-7-7-7-7-7-7-7-7-7-7-7-7-7-7-----2-----------|
E|5-5-5-5-5-5-5-5-5-5-5-5-5-5-------------------|

Chorus x6:
E|x-x-x-x-x-x-x-x-x-x-x-x-x-x-x-x-x-x-x-x-x-x-x-x-x-x-x-x-x-x-x-x|
B|x-x-x-x-x-x-x-x-x-x-x-x-x-x-x-x-x-x-x-x-x-x-x-x-x-x-x-x-x-x-x-x|
G|7-7-7-7-7-7-7-7-4-4-4-4-4-4-4-4-2-2-2-2-2-2-2-2-1-1-1-1-1-1-1-1|
D|7-7-7-7-7-7-7-7-4-4-4-4-4-4-4-4-2-2-2-2-2-2-2-2-2-2-2-2-2-2-2-2|
A|9-9-9-9-9-9-9-9-2-2-2-2-2-2-2-2-----------------2-2-2-2-2-2-2-2|
E|---------------------------------------------------------------|
AT 5/6th TIME FADE OUT

That was hate this place by the Goo Goo Dolls.  Thankyou for using it.
Emails are welcome.
Comments