Goo Goo Dolls - Falling Down Chords & Tabs

 

Falling Down Chords & Tabs

Goo Goo Dolls Chords & Tabs

Version: 1 Type: Tab 1 rating
1 star 2 stars 3 stars 4 stars 5 stars
comments

Falling Down Tab

   
“Falling Down” by the Goo Goo Dolls
By Robert Belding
Please sends any comments/feedback to Mr_Belding_2000@yahoo.com


Intro:  Use these three chords: C#, B, A….end on E
Play with the CD and you’ll find the pattern.

E------------------------------------------------------------
B------------------------------------------------------------
G------------------------------------------------------------
D---11----9----9------11---11---11------7---7----------------
A---11----9----9------11---11---11------7---7----------------
E----9----7----7-------9----9----9------5---5----------------

[ Tab from: http://www.guitartabs.cc/tabs/g/goo_goo_dolls/falling_down_tab.html ]
E------------------------------------------------------------
B------------------------------------------------------------
G---------------------------------------------------9--------
D---11----9----9-----7---7----7----7-----9---9------9--------
A---11----9----9-----7---7----7----7-----9---9------7--------
E----9----7----7-----5---5----5----5-----7---7--------0-0-0-0


Verses are just as others posts have transcribed:  B, C#, G#, A 

Pre-Chorus: E, D#, C#, B, A….Fill 1


Fill One is a variation of the “A” chord.  Slide into it:  
Play after “And all I’ve ever wanted was so far gone”

E---------------9-------------7----------------------------
B----------------------------------------------------------
G--------9-----------------------------9-------------------
D----------------------------------------------------------
A----------------------------------------------------------
E----------------------------------------------------------

Middle and Solo:  Same as other Posts

Ending: G#, A, C#, B……and end on A.

Comments