Goo Goo Dolls - Falling Down Chords & Tabs

 

Falling Down Chords & Tabs

Goo Goo Dolls Chords & Tabs

Version: 1 Type: Bass Tab 0 ratings
1 star 2 stars 3 stars 4 stars 5 stars
comments

Falling Down Bass Tab

Intro:7 bar rest
G -------------------|------------------
D -------------------|------------------
A ---7-7-7-7-7-7-7-7-|-7-7-7-7-7-7-7-7--
E -------------------|------------------
(start figure 1)

G -------------------------|------------------
D -------------2-----------|------------------
A --4--2--2-4----4--2--0---|--4--2--0--0-0-2--
E -------------------------|------------------

G -------------------------|----------
D -------------2-----------|----------
A --4--2--2-4----4--2--0---|--4--2----
E -------------------------|----------

(end figure 1)
G -------------------|------------------
D -------------------|------------------
A ---7-7-7-7-7-7-7-7-|-7-7-7-7-7-7-7-7--
E -------------------|------------------

Verse:

G -----------------------------------
D -----------------------------------
A ------2--2----2-------4--4------4--
E -----------------------------------

 Do you know, where you want to go? 
G ----------------------------------
D ----------------------------------
A ----------------------------------
E ---4-4-----4---4----4---4---5--\--

     I ain't got time for you now 
G -----------------------------------
D -----------------------------------
A ------2--2----2-------4--4------4--
E -----------------------------------

 Do you think, that I'll ever be?Pre-Chorus:

G --------------------------------------
D --------------------------------------
A ------7-----6------2--------------0---
E --------------------------------------
[ Tab from: http://www.guitartabs.cc/tabs/g/goo_goo_dolls/falling_down_btab.html ]
 'Cause all I ever   wanted's so far gone 

    And if I  had my chance, I'd go alongChorus:

(figure 1)

You're making me fall down, 

I'm fallin' down again 

I wish you could fall down, 

Can you catch me darling?
G -------------------|------------------
D -------------------|------------------
A -------------------|------------------
E ---0-0-0-0-0-0-0-0-|-0-0-0-0-0-0-0-0--

(verse)

Do you see, what you do to me? 

You ain't got time for it now 

Do you think, that I'll ever be?(pre-chorus)

'Cause all I ever wanted's so far gone 

And if I had my chance, I'd go along(chorus)

You're making me fall down 

I'm falling down again 

I wish you could fall down 

Can you catch me darling?
G -------------------|------------------
D -------------------|------------------
A ---7-7-7-7-7-7-7-7-|-7-7-7-7-7-7-7-7--
E -------------------|------------------

Break:

G --------------
D --------------
A --4-4------2-0  play 4X 
E --------------

G -------------------
D -------------------
A ----2-0--2-0----7--
E -------------------

Solo:

(figure 1)
G -------------------|------------------
D -------------------|------------------
A ---7-7-7-7-7-7-7-7-|-7-7-7-7-7-7-7-7--
E -------------------|------------------

(pre-chorus)

'Cause all I ever wanted's so far gone 

And if I had my chance, I'd go along(chorus)

You're making me fall down 

I'm falling down again 

I wish you could fall down 

Can you catch me darling?
G -----------------
D -----------------
A ----------4---2--
E ----4---5--------

(4 times to end)
Comments