Goo Goo Dolls - Cuz Youre Gone Chords & Tabs

 

Cuz Youre Gone Chords & Tabs

Goo Goo Dolls Chords & Tabs

Version: 2 Type: Tab 0 ratings
1 star 2 stars 3 stars 4 stars 5 stars
comments

Cuz Youre Gone Tab

tabbed by brendan any problems e-mail at nutter_man182@hotmail.com
/= slide
~~=wave
p=pull off
p.m=palm mute

e-------------------------------------------------------------------------------
B-------------17-17-17^19r17-15-14-15-14----------------14-15-14----------------
G-16p14-14-14-----------------------------16-14~~-16-14----------16-14-16-14----
D-------------------------------------------------------------------------------
A-------------------------------------------------------------------------------
E-------------------------------------------------------------------------------
[ Tab from: http://www.guitartabs.cc/tabs/g/goo_goo_dolls/cuz_youre_gone_tab_ver_2.html ]
e-------------------------------------------------------------------------------
B-------------------------------------------------------------------------------
G-14-14-16^18r16p14---14----------14p13---16-13---14-13--16-13---14-13----------
D-------------------16---16-14-14-------13------13-----13-----13------13--------
A-------------------------------------------------------------------------------
E-------------------------------------------------------------------------------

e-------------------------------------------------------------------------------
B--------------------------------------------------14-14-16p14-16p14------------
G-14~~---9~~----2~~--------------------------------------------------16^-16^----
D---------------------------22/44/66/77/99/1212/14------------------------------
A-------------------------44----------------------------------------------------
E-------------------9///2-------------------------------------------------------
                p.m^_______________________________^just release slightly here  
e-------------------------------------------------------------------------------
B-------------------------------------------------------------------------------
G-16p14-16----------------------------------------------------------------------
D-------------------------------------------------------------------------------
A-------------------------------------------------------------------------------
E-------------------------------------------------------------------------------
Comments