Goo Goo Dolls - Broadway Chords & Tabs

 

Broadway Chords & Tabs

Goo Goo Dolls Chords & Tabs

Version: 4 Type: Tab

Broadway Tab

   
   ARTIST:THE GOO GOO DOLLS
   SONG:BROADWAY
   TUNING:LOW TO HIGH  Eb Ab Db Gb Cb Eb
   TABBED BY:LSCHWEPPE

   GTR.1
   --0---0---0--0---0----0---0----0--0--0------------------------------|
   --0---0---0--0---0----0---0----0--0--0------------------------------|
   --0---0---0--0---0----0---0----0--0--0------------------------------|
   --2---2---2--2---2----2---2----2--2--2------------------------------|
   --3---3---3--3---0----0---0----0--0--0------------------------------|
   --------------------------------------------------------------------|

   GTR.2
   LET RING THROUGHOUT
   --------------------------------------------------------------------|
   ----------7---7--------7--------------------------------------------|
   --4-/-5----------------5----5---7-/-9-\-7---5---------5-------------|
   ------------------------------------------------7~~~------7---------|
   --------------------------------------------------------------------|
   --------------------------------------------------------------------|

   GTR.2
   ---------------------------------------------------------------------|
   ---------------------------------------------------------------------|
   --5H7--5-------------------------------------------------------------|
   -----------7---5---------------7~~~~~~~~~~--5------------3-----------|
   ---------------------------------------------------------------------|
   ---------------------------------------------------------------------|


   GTR.1
   LET RING THROUGHOUT
   ---------0----------------0-------------0---------0------------------|
   ------------0----------------0-------------0---------0---------------|
   ------0---------------0--------------0--------0---------0------------|
   ---------------------------------------------------------------------|
   ---0-----------------------------------------------------------------|
   ------------------3--------------1-----------------------------------|
[ Tab from: http://www.guitartabs.cc/tabs/g/goo_goo_dolls/broadway_tab_ver_4.html ]
   ----------0----------------0--------------0-------------0------------|
   --------------0----------------0-----------------------------0-------|
   -----0-----------------0---------------0------------0----------------|
   ---------------------------------------------------------------------|
   --3------------------------------------------3-----------------------|
   -------------------3---------------1---------------------------------|

   ----------0----------------0----------------0-------0-------0--------|
   --------------0----------------0---------------0-------0-------0-----|
   ------0----------------0----------------0---------0-------0-------0--|
   ---------------------------------------------------------------------|
   --0------------------------------------------------------------------|
   -------------------3----------------1--------------------------------|

   --0--------0--------------0----------0---------------0---------------|
   -----0-----0-----------------------------0--------------0------------|
   --------0-----0-------0----------0----------------0--------0---------|
   ---------------------------------------------------------------------|
   ------------------0--------------------------------------------------|
   -----------------------------3----------------1----------------------|

   --0-----------------0-----------------0------------------------------|
   -----0-----------------0----------0--------0-------------------------|
   --------0-------2--------------------------5-------------------------|
   -------------0---------------3---------------------------------------|
   ---------------------------------------------------------------------|
   ---------------------------------------------------------------------|

   --0---0--0---0----0---0----0---0----0---0---0---0----0-----0---------|
   --0---0--0---0----0---0----0---0----0---0---0---0----0-----0---------|
   --0---0--0---0----0---2----2---2----2---2---2---2----0-----0---------|
   --2---2--2---0----0---3----3---3----3---3---3---3----2-----2---------|
   --3---3--3---X----X---3----3---3----3---3---3---3----0-----0---------|
   -------------3----3---1----1---1----1---1---1---1--------------------|

   --0---0---0---0------------------------------------------------------|
   --0---0---0---0------------------------------------------------------|
   --0---0---0---0------------------------------------------------------|
   --0---0---0---0------------------------------------------------------|
   --X---X---X---X------------------------------------------------------|
   --3---3---3---3------------------------------------------------------|

        THIS SHOULD GET EVERYBODY STARTED I'LL TAB THE REST LATER