Goo Goo Dolls - Broadway Chords & Tabs

 

Broadway Chords & Tabs

Goo Goo Dolls Chords & Tabs

Version: 2 Type: Tab 0 ratings
1 star 2 stars 3 stars 4 stars 5 stars
comments

Broadway Tab

   
Song:Broadway
Band:Goo Goo Dolls
Album:Dizzy Up The Girl

              TAbbed by Rafael Amaral(ramaral@net.em.com.br)
Intro:C-Am(2x)then:

   C -   Am     - C  - Am          - F         -   G
E--------------3~-------------------------------------
B------0---1-----------1-1--3/5/3--1-----1--1/3/1-----
G-------------------------------------2------------0--
D-----------------------------------------------------
A-----------------------------------------------------
E-----------------------------------------------------

Chorus(2x):

  Am    -   G  - Fmaj7      -  C  - G  - F   - C
E------0------0-------0-----0------0----0-----0------0
B----1------1-------1-----1------1----1-----1------1--
G-----------------------------------------------------
D-----------------------------------------------------
A-0----------------------------3----------------3-----
E---------3------1------1------------3----1-----------


Now that part: "See The young Man..."

  Am   -G   -  F          - Dm    -   F   -   C
E-----0------0------0-----0-------0-------0------0----
B---1------1------1-----1-------1-------1-------1-----
G-----------------------------------------------------
D----------------------------0------------------------
A-0-------------------------------------------3-------
E-------3------1-----1----------------1---------------


Chords Used:
Am:002210
G:320033
F:133211
Fmaj7:003210
C:032010
Dm:xx0210

Verse:
[ Tab from: http://www.guitartabs.cc/tabs/g/goo_goo_dolls/broadway_tab_ver_2.html ]
C          Am 
The cowboy kills the rock star 
C                Am
And Friday nightís gone too far 
C             Am
The dim light hides the years 
   F             G
On all the faded girls 
C                 Am
Forgotten but not gone 
C                    Am
You drink it off your mind 
C                  Am
You talk about the world 
          F                    G
Like itís someplace that youíve been 

Bridge:
Am
You see youíd love to run home 
But you know you ainít got one 

Fmaj7
And youíre liviní in a world 
                                  G    F
That youíre best forgotten around here 

Chorus:
Am          G        F
Broadway is dark tonight 
Am           G               F       C
A little bit weaker than you used to be 
Am          G        F
Broadway is dark tonight 
        Am        G
See the young man sitting 
       F         C
In the old manís bar 
Dm              F        C    Am  C  Am
Waiting for his turn to die 

REPEAT VERSE

REPEAT CHORUS

Solo(around 2:50):
   C         -        Am       - 
E--------------------------------
B-----5--3--5--6--5--3--5--3-----
G--5--------------------------5--
D--------------------------------
A--------------------------------
E--------------------------------

   C         -        Am       - 
E--------------------------------
B--5--3--5--6--5--3--5--3--------
G---------------------------5~---
D--------------------------------
A--------------------------------
E--------------------------------

   F            - G        
E-----------------------------------
B--6/5------------------------------
G-------7---7--5--------------5-----
D-----------------7--5--7-----------
A-----------------------------------
E-----------------------------------

   F         -    G
E----------------------------------
B--6/5-------5--6---8~8------------
G-------7-----------7~7------------
D----------------------------------
A----------------------------------
E----------------------------------


Chorus: 
Broadway is dark tonight 
A little bit weaker than you used to be 
Broadway is dark tonight 
See the young man sitting 
In the old manís bar 
Waiting for his turn to die 








Comments